ZADNJE NA FORUMU
  • Yamaha Pacifica

    Komentirao: Ad_slammer

    Datum: 26-10 10:20

    Odgovora: 78

    Pogleda: 9314

  • PorcupineONE - SNIMKE

    Komentirao: porcupine1

    Datum: 26-10 01:32

    Odgovora: 101

    Pogleda: 10279

  • Slika dana

    Komentirao: Glam Boogie

    Datum: 25-10 22:05

    Odgovora: 148

    Pogleda: 7987

  • Pozdrav!

    Komentirao: pekki

    Datum: 25-10 17:36

    Odgovora: 1

    Pogleda: 34

  • Što ste slušali danas

    Komentirao: Glam Boogie

    Datum: 25-10 12:38

    Odgovora: 470

    Pogleda: 27319

  • soldano slo-100 + distorzije

    Komentirao: Ad_slammer

    Datum: 22-10 11:02

    Odgovora: 1

    Pogleda: 127

  • Tražim bassistu za jazz projekt (Zadar)

    Komentirao: Chet

    Datum: 22-10 00:33

    Odgovora: 0

    Pogleda: 73

  • Tražim bassistu za jazz projekt (Zadar)

    Komentirao: Chet

    Datum: 22-10 00:33

    Odgovora: 0

    Pogleda: 40

  • Torpedo18

    Komentirao: akicr7

    Datum: 21-10 15:12

    Odgovora: 0

    Pogleda: 99

  • Kakvo pojačalo imate?

    Komentirao: Sava

    Datum: 21-10 08:57

    Odgovora: 3009

    Pogleda: 717712

  • Koje gitare imate?

    Komentirao: Jibboom

    Datum: 19-10 18:43

    Odgovora: 374

    Pogleda: 31659

  • Sto te nema - verzija iz filma Toma

    Komentirao: nercibald

    Datum: 14-10 08:33

    Odgovora: 0

    Pogleda: 115

  • Gitara & planinarenje

    Komentirao: Strat04

    Datum: 08-10 20:23

    Odgovora: 2

    Pogleda: 235

  • Divlje Jagode - Jedina moja - Cover

    Komentirao: nijebitno

    Datum: 08-10 12:37

    Odgovora: 8

    Pogleda: 716

  • Pusti me - Haris Dzinovic

    Komentirao: nercibald

    Datum: 06-10 18:18

    Odgovora: 0

    Pogleda: 107

  • Bobi Popovski....

    Komentirao: nercibald

    Datum: 03-10 20:19

    Odgovora: 1

    Pogleda: 120

  • NAJNOVIJI video je dostupan...

    Komentirao: etkfrru

    Datum: 03-10 13:41

    Odgovora: 3

    Pogleda: 178

  • Imati pa nemati - Dzej

    Komentirao: nercibald

    Datum: 03-10 08:30

    Odgovora: 0

    Pogleda: 129

  • ambijentalna gitara

    Komentirao: pekki

    Datum: 02-10 16:51

    Odgovora: 0

    Pogleda: 248

  • 06. Kombinacija sweepa i tappinga

    • Datum:   19-01-2009 15:40
    • Autor:   Mustafa Curic
    • Ispiši   Stranicu
    Pozdrav ekipa,
    Evo, za sve kolege sweepere sam odlučio napraviti još jednu vježbu, vježbu koja i meni mnogo pomaže u napretku, ali ovog puta ćemo i tappati :) Zvuči opasno a?? Idemo ovako.

    Prvo ću vam dati primjer bez tappinga čisto da se malo upoznate s arpeggiom koji ćemo raditi:


    Akordi/Tabovi:
                                                 
    e-------------------13---17h---13p-------------------------
    B--------------15-------------------15---------------------                         G----------14--------------------------14------------------
    D------15---------------------------------15---------------
    A--17----------------------------------------17------------
    E----------------------------------------------------------

                                               
    e------------------8---12h---8p----------------------------
    B-------------10-----------------10------------------------
    G----------9-------------------------9---------------------
    D------10------------------------------10------------------
    A--12-------------------------------------12---------------
    E----------------------------------------------------------


    Kao i u prošloj lekciji, savjetujem da vježbate uz metronom i počnete od sporog tempa. Mislim da će vam za ovo trebati manje vremena jer ste već izvježbali primjere iz prošle lekcije. Smatram da ste napredni sweeperi :)Ali ne varajte sami sebe. Ako osjećate da niste spremni, ne brzajte. Vratite se na one stare vježbe i to pređite pa vježbajte ovaj gore arpeggio polako. Tek kad dobro utvrdite to onda prelazimo na tappanje. Važi :)

    Eh, sad je došlo vrijeme za to:



    Akordi/Tabovi:
                                    T                   
    e-------------------13---17h---19p---17p---13-------------------------
    B--------------15----------------------------------15-----------------
    G----------14------------------------------------------14-------------
    D------15--------------------------------------------------15---------
    A--17----------------------------------------------------------17-----
    E---------------------------------------------------------------------
                                                                                       
                                                                                                                                                e------------------8---12h---17p---12p---8------------------
    B-------------10------------------------------10------------
    G----------9--------------------------------------9---------
    D------10-------------------------------------------10------
    A--12--------------------------------------------------12---
    E-----------------------------------------------------------


    Šta imamo ovdje? Vjerujem da ste primjetili da smo našem apreggiju dodali još jedan ton, ton koji ćemo tappati. U početku je to jako teško, treba paziti na desnu ruku, jer ovdje igra važnu ulogu. Ali ne ćemo se obezhrabriti, nego hrabro NAPRIJED! Krećemo od najsporijeg tempa, tempa na kom nećemo praviti ni najsitnije greškice. I idemo, ton po ton. Samo pazite na čistoću tonova i tajming. Brzina će doći poslije.

    http://www.gitare.info/plug.php?e=moviegallery&mg_s=&mg_w=&mg_f=&mg_id=50

    Preporučio bih vam da pogledate ovaj video, posebno obratite pažnju kada Vedran polako pokazuje onaj isti arpeggio koji sam stavio. Obratite pažnju kada treba upotrijebiti desnu ruku. Ne dajte da vas obezhrabri brzina, to dolazi nakon dosta dosta vremena napornog rada. Isplatit će vam se.

    Eh, sada ću dodati više tappinga.....ovako nešto:


    Akordi/Tabovi:
                                                                                                                   
    e-------------8---12h-17p-12p-8-12h-15p-12p-8-12h-13p—12p-8-----------------
    B----------10------------------------------------------------10------------
    G--------9-------------------------------------------------------9---------
    D-----10------------------------------------------------------------10-----
    A--12-------------------------------------------------------------------12-
    E--------------------------------------------------------------------------


    Dragi prijatelji i kolege, nadam se da sam vam pomogao i da ste sada još bolji sweeperi. Samo vježbajte polako uz METRONOM i NE ODUSTAJTE. Jednog dana ćete biti ponosni na sebe...

    Uživajte!

    Slični tekstovi

    Pregledano 7934 puta
    Pregledano 3883 puta
    Pregledano 7223 puta
    Pregledano 2661 puta
    Pregledano 16564 puta

    » 3 komentara... Dodaj svoj!

    Mustafa Curic kaže:

    Tabovi su u lošem stanju do daljneg. Nadam se da ce se uskoro to riješiti.

    19-01-2009 18:17

    Mustafa Curic kaže:

    Eto, tabovi su koliko toliko sređeni. Samo ću napomenuti:

    U trećem tabu odozgo tapping je na 17. polju (17p)

    U Četvrtom, zadnjem tabu tapping je na 17. 15. i 13. polju.

    23-01-2009 00:15

    dar997 kaže:

    nije loše

    09-06-2010 20:57