ZADNJE VIJESTI
ZADNJE NA FORUMU
  • Stanica Podlugovi - Zdravko Colic

    Komentirao: nercibald

    Datum: 24-09 07:25

    Odgovora: 6

    Pogleda: 186

  • Slika dana

    Komentirao: Glam Boogie

    Datum: 24-09 03:06

    Odgovora: 194

    Pogleda: 6204

  • MIDI klavijature 49

    Komentirao: Glam Boogie

    Datum: 23-09 23:27

    Odgovora: 26

    Pogleda: 13090

  • Kakve pedale imate?

    Komentirao: pekki

    Datum: 23-09 21:41

    Odgovora: 2446

    Pogleda: 638657

  • Kronologija prošlih vremena

    Komentirao: Glam Boogie

    Datum: 23-09 19:17

    Odgovora: 352

    Pogleda: 84829

  • Što ste slušali danas

    Komentirao: Glam Boogie

    Datum: 23-09 01:09

    Odgovora: 459

    Pogleda: 24841

  • Free pluginovi!

    Komentirao: pekki

    Datum: 22-09 09:12

    Odgovora: 39

    Pogleda: 5041

  • Koje gitare imate?

    Komentirao: Sava

    Datum: 21-09 17:30

    Odgovora: 361

    Pogleda: 28955

  • Kakvo pojačalo imate?

    Komentirao: etkfrru

    Datum: 12-09 10:32

    Odgovora: 3005

    Pogleda: 710410

  • Aloha

    Komentirao: veselisvirac

    Datum: 11-09 20:30

    Odgovora: 4

    Pogleda: 178

  • Improvizacija

    Komentirao: gstaraz

    Datum: 10-09 22:36

    Odgovora: 7

    Pogleda: 227

  • Kupovina akusticne gitare

    Komentirao: The Stranger

    Datum: 10-09 18:02

    Odgovora: 5

    Pogleda: 208

  • debeli stratocaster zvuk

    Komentirao: pekki

    Datum: 09-09 09:37

    Odgovora: 2

    Pogleda: 201

  • Wireless i druga oprema s Aliexpressa

    Komentirao: Ad_slammer

    Datum: 07-09 09:29

    Odgovora: 2

    Pogleda: 127

  • PorcupineONE - SNIMKE

    Komentirao: porcupine1

    Datum: 06-09 16:14

    Odgovora: 98

    Pogleda: 9811

  • Peavey Bandit 112

    Komentirao: Sava

    Datum: 05-09 17:12

    Odgovora: 12

    Pogleda: 1012

  • Everything I do I do it for you

    Komentirao: nercibald

    Datum: 03-09 22:26

    Odgovora: 3

    Pogleda: 201

  • Fender Stratocaster 60s/50s sound

    Komentirao: pekki

    Datum: 02-09 10:25

    Odgovora: 5

    Pogleda: 251

  • 01. Uvod

    • Datum:   15-01-2009 00:29
    • Autor:   Mustafa Curic
    • Ispiši   Stranicu
    Pozdrav drage kolege,
    Sada ćemo se baviti tehnikom zvanom Alternate picking. Što je to? Idemo redom….

    Jako je važno trzati pravilno. Najbolji, najučinkovitiji i najdinamičniji način trzanja je upravo Alternate picking tj. Konstantno ( naizmjenično ) trzanje GORE – DOLJE.


    Evo, objasnit ću na ovom jednostavnom primjeru:

    Akordi/Tabovi:
    e-----------------------
    B-----------------------
    G.--14--15--13-------
    D-----------------------
    A-----------------------
    E-----------------------


    Ovako, 14. polje trzamo DOLJE a 15. GORE. Zatim 13. polje se ponovo trza prema DOLJE I tako to ide konstantno. Svirajte ovaj mali lick prvo polako a zatim i ubrzano, pritom pazite da ravnomjerno trzate GORE – DOLJE. Može se koristiti i u kombinaciji sa palm mutingom tj. Prigušivanjem žica desnom rukom ( Ispod se nalazi link sa videom u kom Gilbert sve to objašnjava ).


    Uz ovo obavezno preporučujem pogledati ovaj video Paula Gilberta u kom detaljno objašnjava trzanje gore-dolje kao i različite načine držanja trzalice kako bi se dobile različite boje tonova.

    http://www.youtube.com/watch?v=CpJNUGHxC3M



    Dajem vam nekoliko korisnih vježbica:

    Akordi/Tabovi:
    E -------------------------------------------------------------------8-8-9-9-9
    B ---------------------------------------------------------9-9-11-11----------
    G -----------------------------------------8-8-10-10-11-11--------------------
    D -------------------------8-8-10-10-11-11------------------------------------
    A -----------8-8-9-9-11-11----------------------------------------------------
    E -9-9-11-11------------------------------------------------------------------



    E -8-8-------------------------------------------------------------------
    B -----11-11-9-9---------------------------------------------------------
    G ---------------11-11-10-10-8-8-----------------------------------------
    D -------------------------------11-11-10-10-8-8-------------------------
    A -----------------------------------------------11-11-9-9-8-8-----------
    E -------------------------------------------------------------11-11-9-9-



    Svirajte ovo koristeći METRONOM. Krenite od sporog tempa pa postepeno ubrzavajte. Jako je važno da trzate RAVNOMJERNO. Možete upotrijebiti i palm muting, dobit ćete strašne tonove 


    Nadam se da sam vam pomogao…ostavljam vas uz još jedan primjer:

    Akordi/Tabovi:
    E -----------------------------------------1-1-1-1-------------------------------
    B ---------------------------------1-1-4-4---------4-4-1-1-----------------------
    G -------------------------1-1-3-3-------------------------3-3-1-1---------------
    D -----------------1-1-3-3-----------------------------------------3-3-1-1-------
    A ---------1-1-3-3---------------------------------------------------------3-3-1-
    E -1-1-4-4-----------------------------------------------------------------------


    E -----------
    B -----------
    G -----------
    D -----------
    A -1---------
    E ---4-4-1-1-

    Slični tekstovi

    Pregledano 3358 puta
    Pregledano 5507 puta
    Pregledano 3287 puta
    Pregledano 7179 puta
    Pregledano 3643 puta

    » 12 komentara... Dodaj svoj!

    futa kaže:

    Ovo je super, pomaze...

    16-01-2009 00:38

    futa kaže:

    I ja sam je tako okreno bas zbog zvuka a nisam ni znao da je preporucljivo...:)

    16-01-2009 00:41

    Mustafa Curic kaže:

    Drago mi je da pomaže ....:)

    16-01-2009 00:54

    Ado24 kaže:

    cija je ideja bila ovo stavit u dio ''za napredne'',ovo su osnove sviranja... :D

    03-05-2009 23:00

    Mustafa Curic kaže:

    Ado24

    Kad odsviraš ovo na 150 bmp-a onda ću te pitati šza je ovo...

    04-06-2009 23:33

    Mustafa Curic kaže:

    U neku ruku i jesu osnove ali u ovom dijelu dajem primjere koje treba vježbati ako se želi "nabildati" brzina za ovu tehniku.....

    04-06-2009 23:34

    Ado24 kaže:

    u pravu si tu,ja kao početnik nisam mogao na 150 bpm,ali i početnici trebaju znati alternate picking da razvijaju desnu ruku.

    20-07-2009 22:28

    taratumba kaže:

    :(:

    15-10-2009 15:14

    taratumba kaže:

    :15

    15-10-2009 15:14

    taratumba kaže:

    :15:

    15-10-2009 15:14

    rocker4e kaže:

    sa koju jacinu tempa na metronom se pocinje??

    22-08-2010 00:15

    johnny__BH kaže:

    ja ove vjezbe odsviram na 300bps xD :D il ne kontam kako funkcionise metronom, il sam novi satriani B-) :D

    15-09-2012 15:53