Riblja Čorba

Avionu Slomicu Ti Krila (tema)

by: futa

Pronađi akord!

Ne znaš kako odsvirati neki od akorda pjesmi Avionu Slomicu Ti Krila (tema)? Upiši akord u tražilicu i saznaj!

Traženi akord će se prikazati ovdje

Od istog izvođača

Pregledano 11134 puta
Pregledano 2022 puta
Pregledano 7903 puta
Pregledano 74881 puta
Pregledano 13316 puta
Trebaš ritam za ovu pjesmu? Pronađi ga ovdje
Akordi/Tabovi:
e---------------------------------------------------------------------------
B---------------------------------------------------------------------------
G--------------------------5-5-5---4----------------------------------------
D------------------4---7---------------5------------------------------------
A--5-5-7---5---5-5----------------------------------------------------------
E---------------------------------------------------------------------------

e---------------------------------------------------------------------------
B---------------------------------------------------------------------------
G--------------------------5-5-5---4---7------------------------------------
D------------------4---7----------------------------------------------------
A--5-5-7---5---5-5----------------------------------------------------------
E---------------------------------------------------------------------------

Na pocetku pjesme ovaj dio se dva puta ponovi...

e---------------------------------------------------------------------------
B---------------------------------------------------------------------------
G--------------------------5-5-5---4----------------------------------------
D------------------2---5---------------5------------------------------------
A--3-3-5---3---3------------------------------------------------------------
E---------------------------------------------------------------------------

e---------------------------------------------------------------------------
B---------------------------------------------------------------------------
G--------------------------5-5-5---4----------------------------------------
D------------------2---5---------------5------------------------------------
A--3-3-5---3---3------------------------------------------------------------
E---------------------------------------------------------------------------

E a ovaj dio gdje se svira iz 3. polja, tu ima jedna mala zackoljica.:) Vidite gore u prvom dijelu ide prvo 5-5-7 pa tri petice...e a u drugom dijelu ide 3-3-5 pa onda samo dvije trojke. Tako je na samom pocetku a poslje u pjesmi taj drugi dio odsvira i sa 3-3-3, obicno kad ga drugi put odsvira...
Eto i to mi nije promaklo...:)
Komentari

Mustafa Curic kaže:

Bravo! Priznajem da sam se sjebao jer ovo sad nekad davno "skinuo" i danas, kad imam mnogo bolji dluh nego prije, nisam to provjerio...super.

14-01-2009 00:03

futa kaže:

Ma sve ok, nema problema...;)

14-01-2009 00:06

Mustafa Curic kaže:

Sluh :)

14-01-2009 00:25

EyeShineeee kaže:

e---------------------------------------------------------------------------
B---------------------------------------------------------------------------
G--------------------------5-5-5---4----------------------------------------
D------------------4---7---------------5------------------------------------
A--5-5-7---5---5-5----------------------------------------------------------
E---------------------------------------------------------------------------
aaa sve je ekstra brate ali e,B,G,D,A,E malo pa sve veliko heheheh..... Malo sale svaka cast :D

23-09-2013 01:21