Film

Srce Na Cesti/2

by: Rollingthing

Pronađi akord!

Ne znaš kako odsvirati neki od akorda pjesmi Srce Na Cesti/2? Upiši akord u tražilicu i saznaj!

Traženi akord će se prikazati ovdje

Od istog izvođača

Pregledano 25331 puta
Pregledano 37642 puta
Pregledano 501 puta
Pregledano 21308 puta
Pregledano 47941 puta
Trebaš ritam za ovu pjesmu? Pronađi ga ovdje
Izvodac:Jura Stublic & Film
Naziv pjesme:Srce na cesti

Tema u pozadini:

e||-------------------------------------------------------------------------------|
B|--------------------------------------------------------------------------------|
G|--------------------------------------------------------------------------------|
D|--------------------------------------------------------------------------------|
A|-0-0-0-0-0-0-0-0-3-3-3-3-3-3-3-3-0-0-0-0-0-0-0-0-0-0-0-0-0-0-0-0|
E|-0-0-0-0-0-0-0-0-0-0-0-0-0-0-0-0-1-1-1-1-1-1-1-1-3-3-3-3-3-3-3-3|
Vozio sam prema gradu stodvadeset na sat
Nisam bio pijan, a ni napusen
Cist kao ruza sa suncem u ocima
Vozio sam prema gradu stodvadeset na sat.
Vidjeo sam kao mases i oduzeo gas
Usla si u moja kola i svezala pojas.
A na radiju je bila ljubavna pjesma
Moja ruka na tvom ramenu
Tamo na cesti mi je ostalo srce
Na vrucem asfaltu.

Solo dionica(br.1):
||-5--8--5-----------------------------------------------------------------------|
B|-----------5--8--5-------------------------------------------------------------|
G|----------------------5--7--5--7--5--7br*------------------------------------|
D|---------------------------------------------------------------------------------|
A|---------------------------------------------------------------------------------|
E|---------------------------------------------------------------------------------|
*taj solo svirate 4x i posljednji put uradite brzi bend koji cete umiriti.

Milion kilometara od nigdje
Na autoputu Bratstva-jedinstva
Od Dilja prve rupe
Osjetim miris krvi i benzina.
A na radiju je bila ljubavna pjesma
Moja ruka na tvom ramenu
Tamo na cesti mi je ostalo srce
Na vrucem asfaltu.

Solo dionica(br.2):

e||-5-8p5-8p5-8p5-8p5-8p5-8p5-8p5-8p5-----------------|
B|------------------------------------------------5-8p5-8p5-8p5-8p5-8p5-8p5-8p5-8p5|
G|----------------------------------------------------|
D|----------------------------------------------------|
A|----------------------------------------------------|
E|----------------------------------------------------|

e||---------------------------------------------------|
B|------------------------------------------------5-8p5-8p5-8p5-8p5-8p5-8p5-8p5-8p5|
G|-5-7p5-7p5-7p5-7p5-7p5-7p5-7p5-7p5-----------------------------------------------|
D|----------------------------------------------------|
A|----------------------------------------------------|
E|----------------------------------------------------|

Drugi stih se ponavlja da u pozadini budu 5-ice,F5 i G5,ali nisam 100% siguran.
Komentari

Mustafa Curic kaže:

Care, ne valja..

03-03-2009 00:24

antee kaže:

ne valja disu akordi

08-03-2009 22:05

Rollingthing kaže:

Valja,valja,samo treba uhvatit ritam pentantonske molske!

12-04-2009 02:03

D_dur kaže:

valja ba sta nevalja joooj cccc

22-05-2009 02:09

Zero_One13 kaže:

nevalja....

17-03-2010 20:28

veselko kaže:

Nevalja, nevalja.
Mozes ovako ili nikako



e||-------------------------------------------------------------------------------|
B|--------------------------------------------------------------------------------|
G|--------------------------------------------------------------------------------|
D|-2-2-2-2-2-2-2-2-5-5-5-5-5-5-5-5-------------------5-5-5-5-5-5-0-0--------------|
A|-0-0-0-0-0-0-0-0-3-3-3-3-3-3-3-3-3-3-3-3-3-3-3-3-3-3-3-3-3-3-3-2-2--------------|
E|---------------------------------1-1-1-1-1-1-1-1-1------------------------------|

stime da je zadnji takt u ovoj seriji nekad u a molu.


Solo/tema isto nevalja

31-03-2010 09:52

veselko kaže:

nije mi ga dobro kopiralo, uglavnom 1. takt (8x a u power chordu, pa C power, F power i ponovo C s tim da je zadnja doba prijelaz sa h/samo bas ili ako svirate akorde gdur u H basu

31-03-2010 09:57