»Škola gitare - Pocetnici - 16. Vježbe Sinkronizacije - Warm up vježba
»
  https://www.gitare.info/page.php?id=9858

Autor: nbedeko2, Dodano: 07-01-2009 22:24.
Akordi/Tabovi:
E-----------
B-5-8-5-8---
G-6-7-6-7---
D-7-6-7-6---
A-8-5-8-5---
E-----------

E-----------
B-8-5-10-7--
G-7-6-9--8--
D-6-7-8--9--
A-5-8-7--10-
E-----------

Polako vježbajte ove vježbe, i postepeno ubrzavajte. Ja sam vam dao tu dva primjera, ali normalno, možete eksperimentirati s tim i radit svoje vježbe.
Tu je vježbu Satriani pokazal u jednoj svojoj video lekciji, a ja je uvijek sviram za zagrijavanje uz kromatiku. Uživajte! :thumbsup

Preuzeto sa: Gitare.Info