Leb I Sol

Uci Me Majko, Karaj Me (Melodija)

by: gihook

Pronađi akord!

Ne znaš kako odsvirati neki od akorda pjesmi Uci Me Majko, Karaj Me (Melodija)? Upiši akord u tražilicu i saznaj!

Traženi akord će se prikazati ovdje

Od istog izvođača

Pregledano 7845 puta
Pregledano 4153 puta
Pregledano 6290 puta
Pregledano 5733 puta
Pregledano 2994 puta
Trebaš ritam za ovu pjesmu? Pronađi ga ovdje
Akordi/Tabovi:
melodija, Tadic nije bas jednostavan za skidanje...

uvod i veci deo pratnje vrti se oko Dsus2 i D7sus2

ovako:

e|---0------------------------------------------------------------|
B|---3------------------------------------------------------------|
G|---2------------------------------------------------------------|
D|---0---------------0---------------------------------------------|
A|---0------0---3---------------------------------------------------|
E|---------------------------------------------------------------|


melodija:

e|---------------------------------------------------------------|
B|------10-------------------------------------------------------
G|------9b---9--7--5--7/9--7--7--7p5---7---9---10----------------
D|---------------------------------------------------------------|
A|---------------------------------------------------------------|
E|---------------------------------------------------------------|

e|---------------------------------------------------------------|
B|-----10--10-----------------------------------------------------
G|-----9b--9b-----9--7--5--7/9----7-7-----9p7h9---7---------------
D|-------------------------------------10*------------------------
A|---------------------------------------------------------------|
E|---------------------------------------------------------------|

dva puta; mislim da ton za zvezdicom svira Tadic, ali ne smeta, meni zanimljivije svirati bez te pauze

Tadic prati oktavu nize i  nesto oko Dsus2 i Dm6

sledi uvodni deo, pa slicna melodija, za oktavu visa, samo bez A na pocetku; ne smeta ako se odsvira samo morate promenuti poziciju, ja ga ne sviram jer sam na klasicnoj gitari


e|----12b---12---10-----10/12---------10-10-10-----10-12-13------|
B|------------------13--------------------------13---------------|
G|---------------------------------------------------------------|
D|---------------------------------------------------------------|
A|---------------------------------------------------------------|
E|---------------------------------------------------------------|

e|---12b-12b--12--10-----10/12-----10-10-10--------12p10h12---10--|
B|--------------------13---------------------13-----------------|
G|---------------------------------------------------------------|
D|---------------------------------------------------------------|
A|---------------------------------------------------------------|
E|---------------------------------------------------------------|

e|----12--13--13/15----15(tremolo)-------15p13p12h..*-----12/15---|
B|---------------------------------------------------------------|
G|---------------------------------------------------------------|
D|---------------------------------------------------------------|
A|---------------------------------------------------------------|
E|---------------------------------------------------------------|

isto 2 puta

ovaj poslednji deo je dosta "neodredjen"; vriti se sve oko ovoga; cujte snimak; Tadic prati F-dur i Gm7, svira triplet (p gore, m dole, p dole; tako u krug brzo)



mozda sam pogresio negde u pisanju, samo pratite te tonove i sigurno cete i sami skontati (F dur)
Komentari

Strat04 kaže:

Najvažnije nisi rekao... Pjesma je 11/8...

27-04-2019 11:06