Laufer

Moja Voda - verzija 2

by: Darthie

Pronađi akord!

Ne znaš kako odsvirati neki od akorda pjesmi Moja Voda - verzija 2? Upiši akord u tražilicu i saznaj!

Traženi akord će se prikazati ovdje

Od istog izvođača

Pregledano 4144 puta
Pregledano 60258 puta
Pregledano 1562 puta
Pregledano 3531 puta
Pregledano 6964 puta
Trebaš ritam za ovu pjesmu? Pronađi ga ovdje
Akordi/Tabovi:
UVOD:C Cadd9 ,G G6 ,F   ,Em    ,Am Am7      x2


C Cadd9          G G6      F Em      Am Am7
Ostao sam sasvim sam da ležim na suncu
C Cadd9              G G6             F Em        Am Am7
Ja zvao sam te da dođes iz snova i pružiš mi ruku
C Cadd9          G G6             F Em     Am Am7
Molio sam da se napune moja mora i rijeke
C Cadd9               G G6       F Em         Am Am7
U njima jos jednom da osjetim novu ljubav da teče


I pjevam
C Cadd9               G G6
Budi moja voda, ja sam sada vatra
F  Em   Am Am7
Izgorjet ću
C Cadd9                  G G6
Prolij se po meni, budi sve sta zelim
F   Em   Am Am7
Ja zivjeću

Budi moja voda, ja sam sada vatra
Izgorjet ću
Prolij se po meni, budi sve sta zelim
Ja živjeću

SOLO:
e------------------------------------------I
B------------------------------------------I
G-------------7-7b9---9-9-9-9r7----7~------I
D--------7-10-------------------10---------I
A--/7h10-----------------------------------I
E------------------------------------------I

e-----------------------------------------------I
B-----------------------------------------------I
G--pb9r7----7b9r7----7b9r7----7b9r7----7--------I
D--------10-------10-------10-------10---10~\---I
A-----------------------------------------------I
E-----------------------------------------------I

e--------------------------------------------------I
B---------------15-15b17---17-17-17-17r15----15~~--I
G---------14-17---------------------------17-------I
D--/14h17------------------------------------------I
A--------------------------------------------------I
E--------------------------------------------------I
                        ah         ah ah ah
e----------------------------------------------I
B--15b17r15------------15b17r15~~----15--------I
G-----------14--------------------17----17~~\--I
D--------------17~~\---------------------------I
A----------------------------------------------I
E----------------------------------------------I
                                                                      ah
e--------------------------------------------------------------------15~~-I
B--------------------------15~---15~---15~--------------------------------I
G-----------------14-16-17----17----16----14-17-14----14------------------I
D--------14-15-17----------------------------------17----17-14------------I
A--15-17-------------------------------------------------------17-15------I
E-------------------------------------------------------------------------I
                                                                         
e-----17----15-----------------------15~~\-------------------------15b17----r15~~\-I
B--------------17~~-17h18p17------------------------15-15b17r15p13-----------------I
G--17----17-------------------17--14---------/14-17--------------------------------I
D----------------------------------------------------------------------------------I
A----------------------------------------------------------------------------------I
E----------------------------------------------------------------------------------I

e---------------------------15-------15-15-15h17p15\--I
B------------15----------15----15-18------------------I
G---------14----17-14-17------------------------------I
D--/14-17---------------------------------------------I
A-----------------------------------------------------I
E-----------------------------------------------------I
                       ah       ah
e-----------------pb20r19~~-19b20~~~~---II
B--17-17h18p17~\------------------------II
G---------------------------------------II
D---------------------------------------II
A---------------------------------------II
E---------------------------------------II
Komentari

rizvo kaže:

extra točno...svaka čast..

15-11-2011 09:46