Led Zeppelin

Tangerine Solo

by:

Pronađi akord!

Ne znaš kako odsvirati neki od akorda pjesmi Tangerine Solo? Upiši akord u tražilicu i saznaj!

Traženi akord će se prikazati ovdje

Od istog izvođača

Pregledano 1715 puta
Pregledano 1509 puta
Pregledano 2060 puta
Pregledano 1845 puta
Pregledano 1350 puta
Trebaš ritam za ovu pjesmu? Pronađi ga ovdje
Akordi/Tabovi:
e------------10----12--10--------------10---------------10------------------10-|
B--10---13-----------------13-12--13-------12--12-12-13-----12-----12-12-13----|
G------------------------------------------------------------------------------|
D------------------------------------------------------------------------------|
A------------------------------------------------------------------------------|
E------------------------------------------------------------------------------|

e17--15---19--19--19--17--17---19-20----22-Držite--22-|
B-----------------------------------------------------|
G-----------------------------------------------------|
D-----------------------------------------------------|
A-----------------------------------------------------|
E-----------------------------------------------------|
Komentari

skotchiJack kaže:

a ovako:
e------------10----12--10--------------10----------------------10--------------|
B--10---13-----------------12-12--13-12-13bu-12----12-12-13------12-12-13------|
G------------------------------------------------------------------------------|
D------------------------------------------------------------------------------|
A------------------------------------------------------------------------------|
E------------------------------------------------------------------------------|

e15bu--15---19--19--17---19-19---20-20bu--------------|
B-----------------------------------------------------|
G-----------------------------------------------------|
D-----------------------------------------------------|
A-----------------------------------------------------|
E-----------------------------------------------------|

tako nekako, ispričavam se jer ne znam tabove pisat

17-08-2008 22:17

skotchiJack kaže:

sranje, ne onako, ovako:

e------------10----12--10------------------------------------10--------------|
B--10---13-----------------12-12--13-12-13bu-12----12-12-13------12-12-13------|
G------------------------------------------------------------------------------|
D------------------------------------------------------------------------------|
A------------------------------------------------------------------------------|
E------------------------------------------------------------------------------|

e15bu--15---19--19--17---19-19---20-20bu--------------|
B-----------------------------------------------------|
G-----------------------------------------------------|
D-----------------------------------------------------|
A-----------------------------------------------------|
E-----------------------------------------------------|

17-08-2008 22:19