ZADNJE NA FORUMU
  • Turski Marš - Sastavljen iz vise djelova

    Komentirao: truli45

    Datum: 19-10 14:05

    Odgovora: 3

    Pogleda: 67

  • *Blic pitanja*

    Komentirao: Glam Boogie

    Datum: 19-10 13:20

    Odgovora: 3934

    Pogleda: 444594

  • Relax don do it...

    Komentirao: Glam Boogie

    Datum: 19-10 13:14

    Odgovora: 4606

    Pogleda: 666156

  • David Gilmour

    Komentirao: Glam Boogie

    Datum: 18-10 13:36

    Odgovora: 987

    Pogleda: 201521

  • 05.Vjezba za mali prst 5

    • Datum:   15-08-2008 20:00
    • Autor:   HeriP
    • Ispiši   Stranicu
    Slovom M je označen ton koji obavezno mora biti odsviran malim prstom
    Ovo je neki mix između rocka i bluesa,možete si složit i pratnju:Ax2,Dx2,Ax2,Ex1,Dx1,Ax2.





    Akordi/Tabovi:
    e|---------------------------------------------------------------|
    B|---------------------------------------------------------------|
    G|------------------------------------------------------------4--|
    D|-----------4--5--4-----------------4--5--4------------4--7-----|
    A|-----4--7-----------7--4-----4--7-----------7--4---5-----------|
    E|--5-----------------------5------------------------------------|
              M           M           M           M            M
    e|---------------------------------------------------------------|
    B|---------------------------------------------------------------|
    G|--5--4-----------------4--5--4---------------------------------|
    D|--------7--4-----4--7-----------7--4-----------4--5--4---------|
    A|--------------5--------------------------4--7-----------7--4---|
    E|--------------------------------------5------------------------|
              M           M           M           M           M
    e|---------------------------------------------------------------|
    B|---------------------------------------------------------------|
    G|-------------------------------------6--7--6-----------------4-|
    D|-----------4--5--4-------------6--9-----------9--6-----4--7----|
    A|-----4--7-----------7--4----7-----------------------5----------|
    E|--5------------------------------------------------------------|
              M           M             M           M           M       
    e|---------------------------------------------------------------|
    B|---------------------------------------------------------------|
    G|--5--4---------------------------------------------------------|
    D|--------7--4--------------4--5--4--------------------------4---|
    A|--------------5-----4--7-----------7--4--------4-----7---------|
    E|-----------------5-----------------------5---------------------|
              M              M           M                 M
    e|---------------------------------------------------------------|
    B|---------------------------------------------------------------|
    G|---------------------------------------------------------------|
    D|------5------4-------------------------------------------------|
    A|--------------------7---------4--------------------------------|
    E|--------------------------------------5------------------------|
                          M

    Slični tekstovi

    Pregledano 7459 puta
    Pregledano 12750 puta
    Pregledano 15516 puta
    Pregledano 4855 puta
    Pregledano 40149 puta

    » 2 komentara... Dodaj svoj!

    Marko_EKV kaže:

    Mnogo dobra vježba...

    18-12-2009 01:26

    S0und kaže:

    super zvuci

    07-04-2011 20:08