Đubrivo

Šta je

by: HeriP

Pronađi akord!

Ne znaš kako odsvirati neki od akorda pjesmi Šta je? Upiši akord u tražilicu i saznaj!

Traženi akord će se prikazati ovdje

Od istog izvođača

Pregledano 1901 puta
Pregledano 3263 puta
Pregledano 3918 puta
Pregledano 2844 puta
Pregledano 1184 puta
Trebaš ritam za ovu pjesmu? Pronađi ga ovdje
Akordi/Tabovi:
e|-----5--3--2--3--5b7br5--3--2--3--5--3--2----------------------|
B|--5----------------------------------------5--3--5--3----------|
G|-------------------------------------------------------5-------|
D|---------------------------------------------------------------|
A|---------------------------------------------------------------|
E|---------------------------------------------------------------|

e|---------------------------------------------------------------|
B|--5----7--5--------------5---7---5-------5---------------------|
G|--7b9--------7--5-----7--------------7--------7----------------|
D|---------------------------------------------------------------|
A|---------------------------------------------------------------|
E|---------------------------------------------------------------|

   
Em         Cdur
Žena se iz birtije
Ddur    Em Ddur
Vratila kući.
Nervozna i ljuta
Sa visokin tlakon
Stariju kćerku
Je počela tući,
A mlađu je samo
opizdila šakon.

                     A od sada ide E5,C5,D5...

Otac je skočio da brani kćeri:
Nećeš tući ni stariju ni mlađu.
Oštrin glasom ona mu reče ne seri
U ćelo ga pljune i započmu svađu:


Šta je E5
Ništa  E5                 G---9---   
Šta je E5                 D---9--------E5
Začepi E5                 A---7---
Šta je E5
od***** E5
Šta je C5
Uaaaaa E5

SOLO?

Otac je skočio da brani kćeri:
Nećeš tući ni stariju ni mlađu.
Oštrin glasom ona mu reče ne seri
U ćelo ga pljune i započmu svađu:

Šta je E5
Ništa  E5                 
Šta je E5                 
Začepi E5    X3
Šta je E5
od***** E5
Šta je C5
Uaaaaa E5

| /  slide up
| \  slide down
| h  hammer-on
| p  pull-off
| ~  vibrato
| +  harmonic
| x  Mute note


                     :thrasher ywo96 :thrasher
Komentari
Još nema komentara