Amon Amarth

Runes To My Memory

by: Guitar360

Pronađi akord!

Ne znaš kako odsvirati neki od akorda pjesmi Runes To My Memory? Upiši akord u tražilicu i saznaj!

Traženi akord će se prikazati ovdje

Od istog izvođača

Pregledano 1800 puta
Pregledano 2222 puta
Pregledano 1641 puta
Pregledano 2019 puta
Pregledano 1689 puta
Trebaš ritam za ovu pjesmu? Pronađi ga ovdje
Akordi/Tabovi:
Amon Amarth - Runes To My Memory


Drop D tuning

intro - play fast - palm muting - catch the melody

E||---------------------|--------------------|-------------------|
B||---------------------|--------------------|-------------------|
G||---------------------|--------------------|-------------------|
D||---------------------|--------------------|-------------------|
A||---------------------|--------------------|-------------------|
D||--5------4--2--------|----------4----5----|--0----------------|

---------------------|---------------------|--------------------|
---------------------|---------------------|--------------------|
---------------------|---------------------|--------------------|
---------------------|---------------------|--------------------|
---------------------|---------------------|--------------------|
--4--------0----4----|--5------4--2--------|----------4----5----|

------------------------|--------------------|----------|
------------------------|--------------------|----------|
------------------------|--------------------|----------|
------------------------|-----------4--------|----------|
--3------------3--5--3--|--2-----------------|----------|
------------------------|--------------------|----------|

verse -

--------------------------------------|--------------------------------------|
--------------------------------------|--------------------------------------|
--------------------------------------|--------------------------------------|
--5--------5--------5--------5--------|--4--------4--------4--------4--------|
--7--------7--------7--------7--------|--5--------5--------5--------5--------|
-----0--0-----0--0-----0--0-----0--0--|-----0--0-----0--0-----0--0-----0--0--|

--------------------------------------|--------------------------------------|
--------------------------------------|--------------------------------------|
--------------------------------------|--------------------------------------|
--2--------2--------2--------2--------|--2--------2--------2--------2--------|
--3--------3--------3--------3--------|--3--------3--------3--------3--------|
-----0--0-----0--0-----0--0-----0--0--|-----0--0-----0--0-----0--0-----0--0--|

pre chorus - play it like you play a darkthrone song :P

----|---------------------|--------------------|---------------------|
----|---------------------|--------------------|---------------------|
----|---------------------|--------------------|---------------------|
----|---------------------|--------------------|--5------4--2--------|
----|--3------2--0--------|----------2----3----|---------------------|
----|---------------------|--------------------|---------------------|

--------------------|--------------------|--------------------|
--------------------|--------------------|--------------------|
--------------------|--------------------|--------------------|
----------4----5----|--7--------2--------|----------4----5----|
--------------------|--------------------|--------------------|
--------------------|--------------------|--------------------|

-------------------|-------------------|------------------|
-------------------|-------------------|------------------|
-------------------|-------------------|------------------|
--4----------------|-------------------|------------------|
-------------------|--5----------------|------------------|
-------------------|-------------------|------------------|

chorus melody - i dont know 2nd guitar and 3rd (if it exists)

---------------------|----------------------|----------------------|
---------------------|----------------------|----------------------|
--9------------12----|--11--------9----7----|--9--7----------------|
---------------------|----------------------|--------10------------|
---------------------|----------------------|----------------------|
---------------------|----------------------|----------------------|

---------------------|---------------------|----------------------|
---------------------|---------------------|----------------------|
------------7--------|--9------------12----|--11--------9----7----|
--10-----------------|---------------------|----------------------|
---------------------|---------------------|----------------------|
---------------------|---------------------|----------------------|

--------------------|--------------------|------------------|
--12----------------|--10----------------|------------------|
--------------------|--------------------|------------------|
--------------------|--------------------|------------------|
--------------------|--------------------|------------------|
--------------------|--------------------|------------------|

outro or something like that - these are cords catch the melody

-------------------|-------------------|-------------------|------------------|
-------------------|-------------------|-------------------|------------------|
-------------------|-------------------|-------------------|------------------|
--5----------------|--4----------------|--2----------------|------------------|
--7----------------|--5----------------|--3----------------|------------------|
-------------------|-------------------|-------------------|------------------|

-------------------|-------------------|-------------------|------------------||
-------------------|-------------------|-------------------|------------------||
-------------------|-------------------|-------------------|------------------||
--5----------------|--4----------------|--2----------------|------------------||
--7----------------|--5----------------|--3----------------|------------------||
-------------------|-------------------|-------------------|------------------||
Komentari
Još nema komentara