Uriah Heep

Stealin'

by: Rudi

Pronađi akord!

Ne znaš kako odsvirati neki od akorda pjesmi Stealin'? Upiši akord u tražilicu i saznaj!

Traženi akord će se prikazati ovdje

Od istog izvođača

Pregledano 2715 puta
Pregledano 2633 puta
Pregledano 2260 puta
Pregledano 1878 puta
Pregledano 2596 puta
Trebaš ritam za ovu pjesmu? Pronađi ga ovdje
[code]
Available on the album:
"SWEET FREEDOM"

STEALIN' (Hensley)

Bass guitar intro in D,
organ plays: |Dm-D - - -|Dm-D - - -|C - G -|D - - -| <-played twice

verse:
D
Take me across the water
C/D G/D D
'Cause I need some place to hide
D
I done the rancher's daughter
C/D G/D D
And I sure did hurt his pride


verse:
D
Well, there's a

Hundred miles of desert
C/D G/D D
Lies between his hide and mine
D
I don't need no food

And no water, Lord
C/D G/D D-D7
'Cos I'm running out of time


bridge:
G F
Fightin', killin', wine and women
F(maj7)
Gonna put me to my grave
G F
Runnin', hidin', losin', cryin'
F(maj) D
Nothing left to save but my life

guitar: |D - - -|D - - -|C - G -|D - - -| <-played twice


verse:
D
Stood on a ridge

And shunned religion
C G D
Thinking the world was mine
D
I made my break and a big mistake
C
Stealin', when I
G D
Should've been buyin'


bridge:
All that fightin', killin'
Wine and those women
Gonna put me to an early grave
Runnin', hidin', losin', cryin'
Nothing left to save but my life, life...

Guitar solo:
D C G D
E|----------------------------------------------------------------|
B|-------15-------15----15-17-17b19-17b19-17b19-17b19-17p15----15-|
G|-(/16)----(/16)----16-------------------------------------16----|
D|----------------------------------------------------------------|
A|----------------------------------------------------------------|
E|----------------------------------------------------------------|

D
E|----------17b19-17b19-17b19-17b19----------17b19-17b19-17b19-17b19-|
B|----15-------------------------------15----------------------------|
G|-16----16-------------------------16----16-------------------------|
D|-------------------------------------------------------------------|
A|-------------------------------------------------------------------|
E|-------------------------------------------------------------------|

C G D
E|----------------------------------------------|
B|----15-17-17b19-17b19-17b19-17b20-17p15----15-|
G|-16-------------------------------------16----|
D|----------------------------------------------|
A|----------------------------------------------|
E|----------------------------------------------|

Dbl lead guitar this line below:
guitar #1:
D C G D
E|-14----------14-14----------14--------------------------------------|
B|----15----15-------15----15-----------------------------------------|
G|-------14-------------14--------16b17-16b17-16b17-16b17r16-14-16-14-|
D|--------------------------------------------------------------------|
A|--------------------------------------------------------------------|
E|--------------------------------------------------------------------|
| guitar #2: |
E|-17-14----14-17-17-14----14-17--------------------------------------|
B|-------15-------------15--------17b19-17b19-17b19-17b19r17-15-17-15-|
G|--------------------------------------------------------------------|
D|--------------------------------------------------------------------|
A|--------------------------------------------------------------------|
E|--------------------------------------------------------------------|

D
E|----------------------------10-10-10----------10-10-10-14-14-14-17--|
B|-------------------10-10-10----------10-10-10-----------------------|
G|----------11-11-11--------------------------------------------------|
D|-12-12-12-----------------------------------------------------------|
A|--------------------------------------------------------------------|
E|--------------------------------------------------------------------|


E|-15b17-15b17-15b17(r)---------|
B|----------------------15-15---|
G|------------------------------|
D|------------------------------|
A|------------------------------|
E|------------------------------|

verse:
So I stood on a ridge
And shunned religion
Thinking the world was mine
I made my break and a big mistake
Stealin', when I
Should've been buyin'
I was stealin'
When I should've been buyin'
I was stealin'
When I should've been buyin'
Stealin', when I
Should've been buyin' ..
I was stealin' ...

***************************************************************
STEALIN' (Bassline)
As recorded by Uriah Heep
(From the 1973 Album SWEET FREEDOM)
Words and Music by Ken Hensley

Gtr I (E A D G) - 'Bass
Guitar'

Intro
Moderate Rock Q=116(8=s8)
DmD DmD
4/4
Gtr I
E E E E E E E E E E E E E E E E E E E E E E E E E E E E E E E E
|-----------------|-----------------||------------------|-----------------|
|-----------------|-----------------||o-----------------|-----------------|
|-5-5-5-5-5-5-5-5-|-5-5-5-5-5-5-5-5-||o-5-5-5-5-5-5-5-5-|-5-5-5-5-5-5-5-5-|
|-----------------|-----------------||------------------|-----------------|


Verse 1, 2
C/D G/D D D
E E E E E E E E E E E E E E E E E E E E E E E E E E E E E E E E
|-----------------|------------------||-----------------||------------------|
|-----------------|-----------------o||-----------------||o-----------------|
|-5-5-5-5-5-5-5-5-|-5-5-5-5-5-5-5-5-o||-5-5-5-5-5-5-5-5-||o-5-5-5-5-5-5-5-5-|
|-----------------|------------------||-----------------||------------------|


Bridge
C/D G/D D G
E E E E E E E E E E E E E E E E E E E E E E E E 6x E E E E E E E E
|-----------------|-----------------|------------------||-----------------|
|-----------------|-----------------|-----------------o||-----------------|
|-5-5-5-5-5-5-5-5-|-5-5-5-5-5-5-5-5-|-5-5-5-5-5-5-5-5-o||-----------------|
|-----------------|-----------------|------------------||-3-3-3-3-3-3-3-3-|


F Fmaj7 G
E E E E E E E E E E E E E E E E E E E E E E E E E E E E E E E E
|-----------------|-----------------|-----------------|-----------------|
|-----------------|-----------------|-----------------|-----------------|
|-----------------|-----------------|-----------------|-----------------|
|-1-1-1-1-1-1-1-1-|-1-1-1-1-1-1-1-1-|-1-1-1-1-1-1-1-1-|-3-3-3-3-3-3-3-3-|


F Fmaj7
E E E E E E E E E E E E E E Q +W
|-----------------|----------------|------------||
|-----------------|----------------|------------||
|-----------------|----------------|------------||
|-1-1-1-1-1-1-1-1-|-1-1-1-1-1-0-1--|-(1)--------||


D
E E E E E E E E E E E E E E E E
|-----------------|-----------------|
|-----------------|-----------------|
|-5-5-5-5-5-5-5-5-|-5-5-5-5-5-5-5-5-|
|-----------------|-----------------|


C G D
|-3-| |-3-| |-3-|
E E E E E E E E E E E E E E E E E E E E E E E E E E E
|-------------------|-------------------|-------------------|
|-------------------|-------------------|-------------------|
|-3-3-3-3---------3-|-5-5-5-5-5-5-----3-|-5-5-5-5-5-5-----3-|
|---------3-3-3-5---|-------------3-5---|-------------3-5---|


Verse 3
C G D D
|-3-| |-3-|
E E E E E E E E E E E E E E E E E E E E E E E E E E E E E E E E E E
|-------------------|-----------------|-----------------||---------------------|
|-------------------|-----------------|-----------------||---------------------|
|-5-5-5-5-5---5-7-5-|-3-3-3-3-------3-|-5-5-5-5-5-5-5-5-||-5-5-5-5-5-5-----3---|
|-----------5-------|---------3-3-5---|-----------------||-------------3-5-----|


C G D
|-3-| |-3-|
E E E E E Q E E E E E E E E E E E E E E E E E E E E E E E E E E E
|------------------|-----------------|-------------------|-------------------|
|-----4-5-7-5--4---|-----------------|-------------------|-------------------|
|-5-5------------5-|-3-3-3-3---------|-5-----------------|-5-5-5-5-5-5-5-5---|
|------------------|---------3-3-3-3-|---7-5-2-2-3-3-5-5-|-------------------|


Bridge
C G D G
|-3-|
E E E E E E E E E E E E E E E E E E E E E E E E E E E E E E E E E
|-----------------|-------------------|-----------------||-----------------|
|-----------------|-------------------|-----------------||-----------------|
|-5-5-5-5-5-5-5-5-|-3-3-3-3---------3-|-5-5-5-5-5-5-5-5-||-----------------|
|-----------------|---------3-3-3-5---|-----------------||-3-3-3-3-3-3-3-3-|


F Fmaj7
|-3-| |-3-| |-3-| |-3-|
E E E E E E E E E E E E E E E E E E E E E E E E E E E E
|-----------------|-----------------|-------------------------|
|-----------------|---------3-3-----|-3-3-3-3-3-3-3-3-3-4-4-4-|
|-----------------|-3-3-5-5-----5-5-|-------------------------|
|-1-1-5-5-6-6-7-7-|-----------------|-------------------------|


G F Fmaj7
E E E E E E E E E E E E E E E E E E E E E E Q +W
|-----------------|-----------------|----------------|--------||
|-5-5-5-5-5-5-5-5-|-3-3-------------|----------------|--------||
|-----------------|-----------------|----------------|--------||
|-----------------|-----5-5-6-6-7-7-|-8-8-0-0-1-1-1--|-(1)----||


D
|--3--| |--3--| |--3--| |--3--|
E E E E E E E E E E E E E E Q E E E E E E E E E E E E
|-----------------|----------------|-------------------------------------|
|-----------------|----------------|-------------------------------------|
|-5-5-5-5-5-5-5-5-|-5-5-5-5-5-5-5S=|=17-17-17-17-17-17-17-17-17-17-17-17-|
|-----------------|----------------|-------------------------------------|


Guitar Solo
D
|--3--| |--3--| |--3--|
E E E E E E E E E Q E E E E E E E E E E E E E E E E
|--------------------------------||-----------------|-----------------|
|--------------------------------||-----------------|-----------------|
|-17-17-17-17-17-17-17-17-17-17S=||=5-5-5-5-5-5-5-5-|-5-5-5-5-5-5-5-5-|
|--------------------------------||-----------------|-----------------|


C G D
|-3-| |-3-|
E E E E E E E E E E E E E E E E E E E E E E E E E E
|-----------------|-------------------|--------------------|
|-----------------|-------------------|--------------------|
|-3-3-3-3---------|-5-5-5-5-5-5-----3-|-5-5-5-5-5-5-----3--|
|---------3-3-3-3-|-------------3-5---|-------------3-5----|


C G D
|-3-| |-3-|
E E E E E E E E E E E E E E E E E E E E E E E E E E
|-------------------|-----------------|--------------------|
|-------------------|-----------------|--------------------|
|-5-5-5-5-5---5-7-5-|-3-3-3-3---------|-5-5-5-5-5-5-----3--|
|-----------5-------|---------3-3-3-3-|-------------3-5----|


C G
|-3-| |-3-|
E E E E E E E E E E E E E E E E E E E E E E E E E E
|-------------------|-------------------|------------------|
|-------------------|-------------------|------------------|
|-5-5-5-5-5-5-----3-|-5-5-5-5-5---5-7-5-|-3-3-3-3----------|
|-------------3-5---|-----------5-------|---------3-3-3-3--|


D
|-3-|
E E E E E E E E E E E E E E E E E E E E E E E E E
|-------------------|-----------------|-----------------|
|-------------------|-----------------|-----------------|
|-5-3---------------|-5-5-5-5-5-5-5-5-|-5-5-5-5-5-5-5-5-|
|-----5-2-2-3-3-5-5-|-----------------|-----------------|


Verse 4
C G D
|-3-| |-3-| |-3-|
E E E E E E E E E E E E E E E E E E E E E E E E E E E
|---------------------|-------------------||-----------------|
|---------------------|-------------------||-----------------|
|-3-3-3-3-3-----------|-5-5-5-5-5-5-----3-||-5-5-5-5-5-5-5-5-|
|-----------3-3-3-3-3-|-------------3-5---||-----------------|


C G D
|-3-| |-3-|
E E E E E E E E E E E E E E E E E E E E E E E E E E
|-------------------|-----------------|--------------------|
|-------------------|-----------------|--------------------|
|-5-5-5-5-5---5-7-5-|-3-3-3-3---------|-5-5-5-5-5-5-----3--|
|-----------5-------|---------3-3-3-3-|-------------3-5----|


C G
|-3-| |-3-|
E E E E E E E E E E E E E E E E E E E E E E E E E E
|-------------------|-------------------|------------------|
|-------------------|-------------------|------------------|
|-5-5-5-5-5-5-----3-|-5-5-5-5-5---5-7-5-|-3-3-3-3----------|
|-------------3-5---|-----------5-------|---------3-3-3-3--|


D C G D C G
E E E E E E E E E E E E E E E E E E E E E E E E E E E E E E E E
|-----------------|-----------------|-----------------|-----------------|
|-----------------|-----------------|-----------------|-----------------|
|-5-5-5-5-5-5-5-5-|-3-3-3-3---------|-5-5-5-5-5-5-5-5-|-3-3-3-3---------|
|-----------------|---------3-3-3-3-|-----------------|---------3-3-3-3-|


Outro
D C G
|-3-|
E E E E E E E E E E E E E E E E E E E E E E E E E
|-------------------||-----------------|-----------------|
|-------------------||-----------------|-----------------|
|-5-5-5-5-5-------3-||-5-5-5-5-5-5-5-5-|-3-3-3-3---------|
|-----------5-3-5---||-----------------|---------3-3-3-3-|


D C G D
|-3-| |-3-| |-3-|
E E E E E E E E E E E E E E E E E E E E E E E E E E E
|-----------4-7-4-------|-----------------|-----------------|
|-------4-7-------7-4---|-----------------|-----------------|
|-5-5-7---------------7-|-3-3-3-3---------|-5-5-5-5-5-5-5-5-|
|-----------------------|---------3-3-3-3-|-----------------|


C G D C G
|-3-| |-3-|
E E E E E E E E E E E E E E E E E E E E E E E E E E
|-----------------|-------------------|--------------------|
|-----------------|-------------------|---------5-4-5-4----|
|-3-3-3-3---------|-5-3---------------|-3-3-3-3---------5--|
|---------3-3-3-3-|-----5-2-2-3-3-5-5-|--------------------|


D C G D
|-3-|
E E E E E E E E E E E E E E E E E E E E E E E E E
|-----------------|-----------------|-------------------|
|-----------------|-----------------|-------------------|
|-5-5-5-5-5-5-5-5-|-3-3-3-3---------|-5-3---------------|
|-----------------|---------3-3-3-3-|-----5-2-2-3-3-5-5-|


C G D C G
E E E E E E E E E E E E E E E E E E E E E E E E
|-----------------|-----------------|-----------------|
|-----------------|-----------------|-----------------|
|-3-3-3-3---------|-5-5-5-5-5-5-5-5-|-3-3-3-3---------|
|---------3-3-3-3-|-----------------|---------3-3-3-3-|


D C G D
|-3-|
E E E E E E E E E E E E E E E E E E E E E E E E E
|-------------------|-----------------|-----------------|
|-------------------|-----------------|-------4---4-----|
|-5-5-5-5-5---5-7-5-|-3-3-3-3---------|-5-5-7---7---7-5-|
|-----------5-------|---------3-3-3-3-|-----------------|


C G D C G
|-3-|
E E E E E E E E E E E E E E E E E E E E E E E E E
|-----------------|-----------------|-------------------|
|-----------------|-----------------|-------------------|
|-3-3-3-3---------|-5-5-5-5-5-5-5-5-|-3-3-3-3---------3-|
|---------3-3-3-3-|-----------------|---------3-3-3-5---|


D C G D
|-3-|
E E E E E E E E E E E E E E E E E E E E E E E E E
|-------------------|-----------------|-----------------|
|-------------------|-----------------|-----------------|
|-5-5-5-5-5-5-3-2-3-|-5-5-5-5-5-5-5-5-|-3-3-4-4-5-5-5-5-|
|-------------------|-----------------|-----------------|


C G D C G
|-3-|
E E E E E E E E E E E E E E E E E E E E E E E E E
|-----------------|-------------------|-----------------|
|-----------------|-------------------|-----------------|
|-3-3-3-3---------|-5-5-5-5-5-5-5-5-5-|-3-3-3-3---------|
|---------3-3-3-3-|-------------------|---------3-3-3-3-|


D C G D
|-3-|
E E E E E E E E E E E E E E E E E E E E E E E E E
|-------------------|-----------------|-----------------|
|-------------------|-----------------|-----------------|
|-5-5-5-5-5-5-5-5-5-|-3-3-3-3---------|-5-5-5-5-5-5-5-5-|
|-------------------|---------3-3-3-3-|-----------------|


C G D C G
E E E E E E E E E E E E E E E E E E E E E E E E
|-----------------|-----------------|-----------------||
|-----------------|-----------------|-----------------||
|-3-3-3-3---------|-5-5-5-5-5-5-5-5-|-3-3-3-3---------||
|---------3-3-3-3-|-----------------|---------3-3-3-3-||


D C G/D
|-3-| |-3-| |-3-| |-3-| |-3-|
E E E E E E E E E E E E E E E E E E E E E E E E E E E E E
|-------------------|-------------------------|-----------------|
|-------------------|-------------------------|-----------------|
|-5-5-5-5-5-5-5-5-5-|-5-5-5-5-5-5-5-5-5-5-5-5-|-5-5-5-5-5-5-5-5-|
|-------------------|-------------------------|-----------------|


F/C D
|-3-| |-3-| |-3-| |--3--| |--3---| |--3--|
E E E E E E E E E Q E E E Q +E E E E E E
|----------------------|----------------------------------:
|----------------------|----------------------------------:
|-5-5-5-5-5-5-5-5-5-5S=|=17-17-17-17--(17)-17-17-17-17-16-:
|----------------------|----------------------------------:


|--3--| |--3--| |--3--| |--3--|
E E E E E E E E E E E E
|-------------------------------------:
|-------------------------------------:
|-16-16-15-15-14-14-14-13-13-12-12-11-:
|-------------------------------------:


|--3--| |-3-|
E E E E E E Q Q e E +H.
|----------------------:-----------------:
|----------------------:-----------------:
|-11-11-10-9-9-9-9s=5S=:=12--------------:
|----------------------:----10-(10)------:


+W +W +H +H
|-------------:-------------:-----------------*|
|-------------:-------------:-----------------*|
|-------------:-------------:-----------------*|
|-(10)--------:-(10)--------:-(10)----(10)----*|
Komentari
Još nema komentara