Riblja Čorba

kad hodas(uvod)

by: faLLen_angel

Pronađi akord!

Ne znaš kako odsvirati neki od akorda pjesmi kad hodas(uvod)? Upiši akord u tražilicu i saznaj!

Traženi akord će se prikazati ovdje

Od istog izvođača

Pregledano 6049 puta
Pregledano 6807 puta
Pregledano 2612 puta
Pregledano 2550 puta
Pregledano 6474 puta
Trebaš ritam za ovu pjesmu? Pronađi ga ovdje
Akordi/Tabovi:
                      kad hodas


E||--17-16---14------------------------------------------------|
B||----------------14-17-------14-17----15--14----14-----------|
G||-------------------------16-----------------16----16-14-----|
D||--------------------------------------------------------16--|
A||------------------------------------------------------------|
E||------------------------------------------------------------|

                                                               
E||--22--21--19-21-19---------21---21------------------||
B||-------------------22-19--------24--22--------------||
G||---------------------------------------21----18-19--||
D||----------------------------------------------------||
A||----------------------------------------------------||
E||----------------------------------------------------||
Komentari

Shegi kaže:

Sta je ovo 20 + :S

31-05-2009 21:50

kara kaže:

Jebiga akustara je kraca za koji prag. Shegrte_bandana

16-10-2009 00:03

Woochko kaže:

moja elektricna je kraca za dva praga :D xD

02-11-2009 23:46

BOKYMAN kaže:

DA ELEKTRICNE NEKE IMAJU 22

19-01-2010 11:24

TeraBajt kaže:

spustite pjesmu za oktavu nize onda.

20-05-2010 15:27