Flamingosi

Sve Nas Cure Čekaju

by: Princ

Pronađi akord!

Ne znaš kako odsvirati neki od akorda pjesmi Sve Nas Cure Čekaju? Upiši akord u tražilicu i saznaj!

Traženi akord će se prikazati ovdje

Od istog izvođača

Pregledano 26602 puta
Pregledano 27351 puta
Pregledano 47376 puta
Pregledano 7089 puta
Pregledano 14084 puta
Trebaš ritam za ovu pjesmu? Pronađi ga ovdje
Akordi/Tabovi:
Flamingosi-Sve nas cure cekaju

SOLO:kosa crta je:odsvirate 3 i povucete prst
do 5 bez da okinete 5 to brzo uradite.Ako
vam je to komplikovano onda svirajte samo broj
posle crte dakle 5,kasnije 7 i to je to.
G                        C         D
------------------------------------------------)
-------------------------3/5--------------------)
4-77777-5-4--4-77777-5-4----7-5-4--4/5-4---4----)2x
-----------------------------------------7---7-5)
------------------------------------------------)
------------------------------------------------)
Am             Em         Am           H     Em
------------------------------------------------
---------------------------------------------5--
-----------------------------------4-5-4--8-----
5/7--5-4-5/7-4--------4-5-5/7--7-7--------------
---------------7--7-7---------------------------
------------------------------------------------
ovu zadnju peticu ne sviraju oni meni s njom zvuci
kao zavrsen solo pa vi kako hocete

Em
Ovi dani sporo teku
G                        H
sklopim oci vidim rijeku ja
          Em
tece miljacka
Em
preko mosta cure secu
G                      H
lijepe su al ipak necu ja
            Em
da ih pogledam
Em    Am           Em
falis mi da ih zapalis
Em      Am            H
kao nekada u reki secanja

REFREN:
G
Sve nas cure cekaju

nasmejanih usana
C            D
kad se smeju srce greju
G
beogradskim nocima

sarajevskim jutrima
C          D
ljubimo ih dok se smeju
Am              Em
aaaaj dodji necekaj
Em        Am            H
doci cu i ja nek se zapeva

SOLO:
G                        C         D
------------------------------------------------)
-------------------------3/5--------------------)
4-77777-5-4--4-77777-5-4----7-5-4--4/5-4---4----)2x
-----------------------------------------7---7-5)
------------------------------------------------)
------------------------------------------------)
Em
E moj druze lose vece
G
cak i Sava tiho tece
H               Em
aaaaa srce ubrzava
Em
kad se setim onih noci
G                    H
svake noci druge oci mi
             Em
tad smo ljubili
Em     Am           Em
gde se to sve izgubilo
Em      Am         H
skadarlija bascarsija

REFREN:2X
Komentari

iga_bwb kaže:

u prvoj strofi umjesto ovog H ide D ako se ne varam....sve u svemu dobro uradjeno :)

09-08-2008 20:34

Panker94 kaže:

to sam i ja primetio..inace super pesma..........

04-02-2009 16:55

Ralecaster kaže:

Nije istina, ide H...:)

14-07-2009 17:23

Princ kaže:

Ma ide H,samo ja nisam htjeo nista komentarisati.Njima je vjerovatno bilo tesko uhvatiti H pa su onda isli na D.Ja H hvatam tako sto malim prstom poklopim sve tri zice a moze i teze dakle svakim prstom pojedinacno hvatati zicu sto je mozda i pravilnije jer imas vece mogucnosti.

14-07-2009 22:42

iva-mala17 kaže:

definitivno ide H,a ne D,jest da je teze odsvirat..ali bolje zvuci,a kome je tesko uhvatit H po barovima,neka svira H7,nema tako velike razlike..

16-09-2009 15:22

TarikBesic kaže:

sve je dobroo... malo solo ne stima... ali moze se prilgoditi po sluhu samo na kraju prvog dijela sola ima mala greska ali je zanemariva... svaka cast za ostalo

04-11-2009 22:26

mirov5 kaže:

ola...ljudovi...moze to meni netko objasnit kak se to svira... ritam???

17-02-2010 00:50

vlado gitarista kaže:

extra su akordi...

17-03-2010 16:21

Emol kaže:

probaj dd gg dg to je pocetnicki

04-04-2010 11:33

mirov5 kaže:

ok..probat cemo...hvala...heheh =)

05-05-2010 22:23

Saska"98Rock kaže:

Solo je odlican,moze da se svira i H i D,oba fino zvuce,kome je lakse nek uhvati D ili H7...Olicno..Pozz

22-10-2011 15:13