Đorđe Balašević

na posletku(uvod)

by: faLLen_angel

Pronađi akord!

Ne znaš kako odsvirati neki od akorda pjesmi na posletku(uvod)? Upiši akord u tražilicu i saznaj!

Traženi akord će se prikazati ovdje

Od istog izvođača

Pregledano 25573 puta
Pregledano 16480 puta
Pregledano 4628 puta
Pregledano 14836 puta
Pregledano 12237 puta
Trebaš ritam za ovu pjesmu? Pronađi ga ovdje
Akordi/Tabovi:
naposletku

E||-----------------------------3---2---5---3--|
B||-----------1---------4----------------------|
G||--------0---------2-----2----4---2---5---4--|
D||-----2--------2/4---------------------------|
A||--0-----------------------------------------|
E||--------------------------------------------|

                                                                               
E||-------------------------------------------||
B||-----------1---------4------5--------------||
G||--------0---------2-----2------4-----2-----||
D||-----2--------2/4-----------------5-----2--||
A||--0----------------------------------------||
E||-------------------------------------------||
Komentari
Još nema komentara