Billy Talent

Burn The Evidence

by: doom

Pronađi akord!

Ne znaš kako odsvirati neki od akorda pjesmi Burn The Evidence? Upiši akord u tražilicu i saznaj!

Traženi akord će se prikazati ovdje

Od istog izvođača

Pregledano 1327 puta
Pregledano 1244 puta
Pregledano 1404 puta
Pregledano 1396 puta
Pregledano 2284 puta
Trebaš ritam za ovu pjesmu? Pronađi ga ovdje
Akordi/Tabovi:
Tuning: dropped D

Dm        Am        F        Am
|------1-------------------1------------|
|----3---3--------1------1---1------1---|
|--2------------2---2--2----------2---2-|
|-0-----------2-------3---------2-------|
|------------0-----------------0--------|
|---------------------------------------|x3

|------1-------------------1---0~-------|
|----3---3--------1------1---1-5~-------|
|--2------------2---2--2-------3~-------|
|-0-----------2-------3--------5~-------|
|------------0--------------------------|
|---------------------------------------|

Pre Chorus
|---------------------------------------------|
|-6---6-6--8---8-8------------------6---6-6-6-|
|-7---7-7--9---9-9------------------7---7-7-7-|
|-7---7-7--9---9-9------------------7---7-7-7-|
|-5---5-5--7---7-7--7-7-----7-7-----5---5-5-5-|
|-----------------------7-7-----7-7-----------|x2

|---------------------------|
|-6---6-6--8---8-8--5~--3~--|
|-7---7-7--9---9-9--5~--3~--|
|-7---7-7--9---9-9--5~--3~--|
|-5---5-5--7---7-7--3~--1~--|
|---------------------------|

Verse
  Dm        Am        F        Am
|------1-------------------1------------|
|----3---3--------1------1---1------1---|
|--2------------2---2--2----------2---2-|
|-0-----------2-------3---------2-------|
|------------0-----------------0--------|
|---------------------------------------|x5

|------1-------------------1---0~-------|
|----3---3--------1------1---1-1~-------|
|--2------------2---2--2-------2~-------|
|-0-----------2-------3--------2~-------|
|------------0-----------------0~-------|
|---------------------------------------|

Pre Chorus
|---------------------------------------------|
|-6---6-6--8---8-8------------------6---6-6-6-|
|-7---7-7--9---9-9------------------7---7-7-7-|
|-7---7-7--9---9-9------------------7---7-7-7-|
|-5---5-5--7---7-7--7-7-----7-7-----5---5-5-5-|
|-----------------------7-7-----7-7-----------|x3

Chorus (play the 5's with "Burn The Evidence")
|----------------------|
|----------------------|
|----------------------|
|-5--5-5-5-5-0-2-3-5---|
|-5--5-5-5-5-0-2-3-5---|
|-5--5-5-5-5-0-2-3-5---|x3

|--------|
|--9~----|
|-10~----|
|-10~-8~-|
|--8~-8~-|
|-----8~-|
Play all 2x

Bridge
|--------------------------------------------------|
|--------------------------------------------------|
|-7-7--7-7-7-7777-5-5--5-5-5-5555-3333333322222222-|
|-x-x--x-x-x-xxxx-x-x--x-x-x-xxxx-3333333322222222-|
|-5-5--5-5-5-5555-3-3--3-3-3-3333-1111111100000000-|
|--------------------------------------------------|x2

|-----------------------------------------------------------------|
|-6-6-6-6-6-6-6-6-5-5-5-5-5-5-5-5-3-3-3-3-3-3-3-3-1-1-1-1-1-1-1-1-|
|-7-7-7-7-7-7-7-7-5-5-5-5-5-5-5-5-3-3-3-3-3-3-3-3-2-2-2-2-2-2-2-2-|
|-7-7-7-7-7-7-7-7-5-5-5-5-5-5-5-5-3-3-3-3-3-3-3-3-2-2-2-2-2-2-2-2-|
|-5-5-5-5-5-5-5-5-3-3-3-3-3-3-3-3-1-1-1-1-1-1-1-1-0-0-0-0-0-0-0-0-|
|-----------------------------------------------------------------|

Pre Chorus
|---------------------------------------------|
|-6---6-6--8---8-8------------------6---6-6-6-|
|-7---7-7--9---9-9------------------7---7-7-7-|
|-7---7-7--9---9-9------------------7---7-7-7-|
|-5---5-5--7---7-7--7-7-----7-7-----5---5-5-5-|
|-----------------------7-7-----7-7-----------|x2


Chorus
|----------------------|
|----------------------|       
|----------------------|       
|-5--5-5-5-5-0-2-3-5---|       
|-5--5-5-5-5-0-2-3-5---|       
|-5--5-5-5-5-0-2-3-5---|x3     
                               
|---------------------|
|--9--9--9--9---------|
|-10-10-10-10---------|
|-10-10-10-10-8-8-8-8-|
|--8--8--8--8-8-8-8-8-|
|-------------8-8-8-8-|

Play all 3x

then...
|----------------------|
|----------------------|
|----------------------|
|-5--5-5-5-5-0-2-3-5---|
|-5--5-5-5-5-0-2-3-5---|
|-5--5-5-5-5-0-2-3-5---|x3

|--------|
|--9~----|
|-10~----|
|-10~-8~-|
|--8~-8~-|
|-----8~-|

End on:
|-1~-|
|-3~-|
|-2~-|
|-0~-|
|----|
|----|

Outro Picking
  Dm      Am      F       Am
|-1-----1---------1-----1---------|
|-----3---1-----1-----1---1-----1-|
|---2---------2-----2---------2---|
|-----------2---------------2-----|
|---------------------------------|
|---------------------------------|x2
Komentari

phillip_os kaže:

užas... ne valja ni malo.

13-02-2010 19:47