Opća Opasnost

Ti Mi Nećeš Reći Zbogom

by:

Pronađi akord!

Ne znaš kako odsvirati neki od akorda pjesmi Ti Mi Nećeš Reći Zbogom? Upiši akord u tražilicu i saznaj!

Traženi akord će se prikazati ovdje

Od istog izvođača

Pregledano 12645 puta
Pregledano 28240 puta
Pregledano 4398 puta
Pregledano 7985 puta
Pregledano 19185 puta
Trebaš ritam za ovu pjesmu? Pronađi ga ovdje
Akordi/Tabovi:
UVOD (00:00-00:17):
Dm              F*    G*        Dm              G*    A#
|--------1------|---------------|--------1------|---------------
|----3-----3---3|----------3h5p3|----3-----3---3|--3---------3-1
|------2-----2--|--2-0---4------|------2-----2--|----5-----3----
|0--------------|3-----5--------|0--------------|5--------------
|---------------|---------------|---------------|------1--------
|---------------|---------------|---------------|---------------

Dm              F*     G*       A#
--------1------|---------------|6--------------|---------------|
----3-----3---3|-----------3---|6--------------|--------------3|
------2-----2--|--2-0----4---5-|7--------------|-----------0h2-|
0--------------|3------5-------|8--------------|---------------|
---------------|---------------|8--------------|---------------|
---------------|---------------|6--------------|---------------|


AKUSTICNI SOLO (00:17-00:36):

|-10-------10-10s12-10------12-13-12-10-------------------
|-------13-------------13-------------------8-6-8-8s10-10-
|---------------------------------------------------------
|---------------------------------------------------------
|---------------------------------------------------------
|---------------------------------------------------------

------10-12-13---15-13-12-10-----12-10----10s12-10-------|
---------------------------------------13----------------|
---------------------------------------------------------|
---------------------------------------------------------|
---------------------------------------------------------|
---------------------------------------------------------|


SHEMA ISPOD PRVOG SOLA:

Dm              Dm/C            A#add11         Cadd9           Dm
|--------1------|--------1------|--------0------|--------0------|--------1------
|----3-----3---3|----3-----3---3|----3-----3---3|----3-----3---3|----3-----3---3
|------2-----2--|------2-----2--|------3-----3--|------0-----0--|------2-----2--
|0--------------|---------------|---------------|---------------|0--------------
|---------------|3--------------|1--------------|3--------------|---------------
|---------------|---------------|---------------|---------------|---------------

Dm/C            A#add11         Cadd9
--------1------|--------0------|--------0------|
----3-----3---3|----3-----3---3|----3-----3---3|
------2-----2--|------3-----3--|------0-----0--|
---------------|---------------|---------------|
3--------------|1--------------|3--------------|
---------------|---------------|---------------|



SHEMA ISPOD PRVE I DRUGE STROFE (00:23-01:10 i 01:16-01:52):

Dm              Dm/C            A#add11         Cadd9           Dm
|--------1------|--------1------|--------0------|--------0------|--------1------
|----3-----3---3|----3-----3---3|----3-----3---3|----3-----3---3|----3-----3----
|------2-----2--|------2-----2--|------3-----3--|------0-----0--|------2--------
|0--------------|---------------|---------------|---------------|0-----------0-2
|---------------|3--------------|1--------------|3--------------|---------------
|---------------|---------------|---------------|---------------|---------------

F               C               Am              Dm
--------1------|--------0------|--------0------|--------1------
----1-----1---1|----1-----1----|----1-----1---1|----3-----3---3
------2-----2--|------0--------|------2-----2--|------2-----2--
3--------------|---------------|---------------|0--------------
---------------|3-----------3-2|0--------------|---------------
---------------|---------------|---------------|---------------

A#      Cadd9   Dm              A#      Cadd9   Dm
---------------|--------1------|---------------|--------1------
----3-------3--|----3-----3---3|----3-------3--|----3-----3---3
------3-------0|------2-----2--|------3-------0|------2-----2--
--3-------2----|0--------------|--3-------2----|0--------------
1-------3------|---------------|1-------3------|---------------
---------------|---------------|---------------|---------------


A#      Cadd9   Dm      G
---------------|--------3------|
----3-------3--|----3---3------|
------3-------0|------2-0------|
--3-------2----|0-------0------|
1-------3------|--------2------|
---------------|--------3------|


DIO IZMEĐU PRVE I DRUGE STROFE (01:10-01:16):

                 Dm              Dm
|---------------|--------1------|--------1------|
|--------------3|----3-----3---3|----3-----3---3|
|-----------0h2-|------2-----2--|------2----0h2-|
|---------------|0--------------|0--------------|
|---------------|---------------|---------------|
|---------------|---------------|---------------|


Kada mi srce slomiš
Kada me samog ostaviš
i kad me zaboli zadnji stih
pjesme koju ostavljaš meni
past će ružin cvjet
na vodu hladnu ledenu
i past će suze na dlanove moje
ali to te neće patiti.

Kada mi jutro svane
bez nade i bez ljubavi
i kad mi hladni vjetrovi
slede tvoje ime na usnama
past će zvjezda moja
u bezdan tamni duboki
i stat će vrjeme u očima mojim
    A#                    Dm
ko vlak kad staje zadnji put


REF:
      Dm       F           A#
    A ti ti mi nećeš mahnuti
           A          Dm
    kad me zagrle tišine
             F          A#
    i kad mi duša poleti
               G             A#
    slomljenih krila u visine
             A
    zalud će zvona zvonit
    G
    uzalud, u vjetar

        Dm       F        A#
    jer ti nećeš se okrenuti
          A            Dm
    ti mi nećeš reći zbogom
              F           A#
    jer nikad nećeš saznati
           Dm       A#    C
    da sam otišo za tobom
           Dm       A#    C
    da sam otišo za tobom


SOLO:  Dm, A#, C, A, Dm, F, A#, C


Dm       C
Kada mi jutro svane
A#        C           Dm
bez nade i bez ljubavi
          F            C
i kad mi hladni vjetrovi
Am                 Dm
slede tvoje ime na usnama
A#       C       Dm
past će zvjezda moja
A#        C      Dm
u bezdan tamni duboki
A#       C        Dm    G
i stat će vrjeme u očima mojim
    A#                    Dm
ko vlak kad staje zadnji put


REF:
    A ti ti mi nećeš mahnuti
    kad me zagrle tišine
    i kad mi dusa odleti
    slomljenih krila u visine
    zalud će zvona zvonit
    uzalud, u vjetar.

    Jer ti nećeš se okrenuti
    ti mi nećeš reci zbogom
    jer nikad nećeš saznati
    da sam otišo za tobom
    da sam otišo za tobom
    da sam otišoooo sa tobooooom.

--------------------------------------
Dm         xx0231   ili riff   x57765
F*         xx3211
F          133211
G*         xx5433
G          320033   ili riff   355433
A#         x13331   ili riff   688766
Dm/C       x30231
A#add11    x13330
Cadd9      x32030
C          x32010   ili riff   8|10|10|9|8|8
Am         x02210   ili riff   577555
A          x02220   ili riff   577655
Komentari
Još nema komentara