Audioslave

I Am The Highway

by: Svizac

Pronađi akord!

Ne znaš kako odsvirati neki od akorda pjesmi I Am The Highway? Upiši akord u tražilicu i saznaj!

Traženi akord će se prikazati ovdje

Od istog izvođača

Pregledano 1623 puta
Pregledano 1703 puta
Pregledano 2310 puta
Pregledano 1546 puta
Pregledano 1830 puta
Trebaš ritam za ovu pjesmu? Pronađi ga ovdje
Akordi/Tabovi:
CHORDS
   F   C   G   Am  Dm  E
|--1---0---3---0---1---0--|
|--1---1---0---1---3---0--|
|--2---0---0---2---2---1--|
|--3---2---0---2---0---2--|
|------3-------0-------2--|
|----------3-----------0--|

INTRO
   C   G   Dm  Am
|---3---3---1---0---|
|´--1---0---3---1--´|
|---0---0---2---2---|
|---2---0---0---2---|
|´--3-----------0--´|
|-------3-----------|


FILL1
|-----0----0--0--0----0---|
|´----0----0--0--0----0--´|
|-----5----5--5--5----5---|
|-----7----7--7--7----7---|
|´--0---------------0----´|
|-------------------------|

VERSE 1
F         C       G       Am
Pearls of swine bereft of me
F        C         G       Am 
Long and weary my road has been
      F           C  Am
I was lost in the cities
    G        C  Am
Alone in the hills
   F         C  Am       G            C  Am
No sorrow or pity   for the leaving I feel
FILL2
|------------|
|------------|
|--2---------|
|----2-------|
|------0--3--|
|------------|

CHORUS1
C       G                Dm   
  I am not your rolling wheels
         Am     FILL2
I am the highway
C       G               Dm
  I am not your carpet ride
          E
I am the sky

FILL1

F             C          G       Am
Friends and liars don't wait for me
F        C      G    Am 
I'll get on all by myself
      F           C  Am
I put millions of miles
G        C  Am
Under my heels
    F         C  Am     G     C Am
And still too close  to you I feel

FILL2

CHORUS2
C       G                Dm
  I am not your rolling wheels
         Am     FILL2
I am the highway
C       G               Dm
  I am not your carpet ride
          Am  FILL2
I am the sky
C       G                Dm
  I am not your blowing wind
         Am       FILL2
I am the lightening
C       G               Dm
  I am not your autumn moon
          E
I am the night

SOLO
<7>=N.H. (natural harmonic)
b= bend
(5)=silence note
GTR2 F C G Am
|---------------------------------------------------------------------------------------|
|-----------------------------8--5--8--8--5---------------------------------------------|
|-----5-----5-----5--5--7--7-----------------7--5-----5-----5--5-----5--7--5--4---------|
|--7-----7-----7-----------------------------------7-----5--------7--------------5------|
|-----------------------------------------------------------------------------------7b--|
|---------------------------------------------------------------------------------------|
                                             
|-------------------------------------------------------------------------------------------|
|-----------------------------------5--6----------------------------------------------------|
|--------4-----5-----5--------5--7--------5--<7>---5---------------5---------5--------5-----|
|-----5-----7--------7-----7--------------------------7--5--(5)-7-----(5)-7-----5--7-----7--|
|--7--------------8-----8-------------------------------------------------------------------|
|-------------------------------------------------------------------------------------------|

|------------------------------0---------------------------------------------------------------|
|-----------------------------------------13---------------------------------------------------|
|---------<7>-------------<7>-----14--14------14--14--12--12------12--12-----------------------|
|--7--<7>-----<7>-----<7>-------------------------------------14----------12-------------------|
|-----------------<7>---------------------------------------------------------15b--12-12b------|
|------------------------------------------------------------------------------------------15--|

|--------------------------------------------------------------------------------------------12--12--|
|----------13--------------------------13------------12--13--15--15--13--13--12--12------------------|
|--14--14------14--14--12--12------12------14--14b-----------------------------------14--14----------|
|------------------------------14--------------------------------------------------------------------|
|----------------------------------------------------------------------------------------------------|
|----------------------------------------------------------------------------------------------------|

|-------------------------------------------------------------------------------------------------|
|--15--15--13--13--12--12------------------------12--12-------------------------------------------|
|--------------------------12--12---------12--12---------14--14-14-14-14-14-14-14-14-14-14-14-14--|
|----------------------------------14--14---------------------------------------------------------|
|-------------------------------------------------------------------------------------------------|
|-------------------------------------------------------------------------------------------------|
Komentari
Još nema komentara