Audioslave

Gasoline

by: Svizac

Pronađi akord!

Ne znaš kako odsvirati neki od akorda pjesmi Gasoline? Upiši akord u tražilicu i saznaj!

Traženi akord će se prikazati ovdje

Od istog izvođača

Pregledano 1830 puta
Pregledano 1623 puta
Pregledano 2217 puta
Pregledano 2310 puta
Pregledano 1704 puta
Trebaš ritam za ovu pjesmu? Pronađi ga ovdje
Akordi/Tabovi:
Intro:
e|------------------------------------------------------------------------
B|------------------------------------------------------------------------
G|------------------------------------------------------------------------
D|------------------------------------------------------------------------
A|------------------------------------------------------------------------
B|---//12---0--0---3H5---0--10H12---12//---0--0---3H5---0--10H12---12//---

e|-----------------------------------------------------|
B|-----------------------------------------------------|
G|-----------------------------------------------------| 
D|-----------------------------------------------------|   
A|---------------------------------------------------2-|
B|---0--0---3H5---0--10H12---12//---5-5--3--5--3--0--0-|

Whole Band Comes In:
e|------------------------------------------------------------------
B|------------------------------------------------------------------
G|------------------------------------------------------------------
D|------------------------------------------------------------------
A|------------------------------------------------------------------
B|---12//---0--0---3H5---0--10H12---12//---3P0--0---3H5---0--10H12--

e|----------------------------------------------------------|
B|----------------------------------------------------------|
G|----------------------------------------------------------|
D|----------------------------------------------------------|
A|--------------------------------------------------------2-|
B|12//---3P0--0---3H5---0--10H12--12//---5-5--3--5--3--0--0-|

Verse 1: With tremelo
                                     
e|--2----2------------2----2----------\
B|--4----4----5---4---4----4----5---4- \
G|--4----4------------4----4----------  \
D|--4----4------------4----4----------  / Twice, then...
A|--2----2------------2----2---------- /
B|------------------------------------/

e|--0----0------------2----2----------|
B|--2----2----5---4---4----4----5---4-|
G|--2----2------------4----4----------| 
D|--2----2------------4----4----------| 
A|--0----0------------2----2----------|
B|------------------------------------|


Chorus:

e|------------------------------------------------------------------
B|------------------------------------------------------------------
G|------------------------------------------------------------------
D|------------------------------------------------------------------
A|------------------------------------------------------------------
B|---12//---0--0---3H5---0--10H12---12//---3P0--0---3H5---0--10H12--


e|----------------------------------------------------------------
B|----------------------------------------------------------------
G|----------------------------------------------------------------
D|----------------------------------------------------------------
A|----------------------------------------------------------------
B|12//---3P0--0---3H5---0--10H12--12//---3P0--0---3H5---0--10H12--


e|-------------------------------------------------------------------------
B|-------------------------------------------------------------------------
G|-------------------------------------------------------------------------
D|-------------------------------------------------------------------------
A|-----------------------5--2--------0H2------------------5--2--------0H2--
B|12//---0--0---3H5---0--------5--3-------0--0---3H5---0--------5--3-------


e|----------------------------------------------------------------|
B|----------------------------------------------------------------|
G|----------------------------------------------------------------|
D|----------------------------------------------------------------|
A|-------------------5--2--------0H2------------------------------|
B|---0--0---3H5---0--------5--3--------12---10---7---5---3--3--0--|

Verse 2:With Tremelo

e|--2----2------------2----2----------\
B|--4----4----5---4---4----4----5---4- \
G|--4----4------------4----4----------  \
D|--4----4------------4----4----------  / Twice, then...
A|--2----2------------2----2---------- /
B|------------------------------------/

e|--0----0------------2----2----------|
B|--2----2----5---4---4----4----5---4-|
G|--2----2------------4----4----------| 
D|--2----2------------4----4----------| 
A|--0----0------------2----2----------|
B|------------------------------------|

Chorus #2:

e|------------------------------------------------------------------
B|------------------------------------------------------------------
G|------------------------------------------------------------------
D|------------------------------------------------------------------
A|------------------------------------------------------------------
B|---12//---0--0---3H5---0--10H12---12//---3P0--0---3H5---0--10H12--


e|----------------------------------------------------------------
B|----------------------------------------------------------------
G|----------------------------------------------------------------
D|----------------------------------------------------------------
A|----------------------------------------------------------------
B|12//---3P0--0---3H5---0--10H12--12//---3P0--0---3H5---0--10H12--


e|-------------------------------------------------------------------------
B|-------------------------------------------------------------------------
G|-------------------------------------------------------------------------
D|-------------------------------------------------------------------------
A|-----------------------5--2--------0H2------------------5--2--------0H2--
B|12//---0--0---3H5---0--------5--3-------0--0---3H5---0--------5--3-------


e|----------------------------------------------------------------|
B|----------------------------------------------------------------|
G|----------------------------------------------------------------|
D|----------------------------------------------------------------|
A|-------------------5--2--------0H2------------------------------|
B|---0--0---3H5---0--------5--3--------12---10---7---5---3--3--0--|


Solo:

e|---------------------------------------------------------\
B|---0---0--3H5---0--10H12--12--0---0--3H5---0--10H12--12-- \
G|---------------------------------------------------------  \Three times
D|---------------------------------------------------------  /
A|--------------------------------------------------------- /
B|---------------------------------------------------------/

e|---------------------------------------------------------
B|---0---0--3H5---0--10H12--12--0--10H12--12--0--10H12-----
G|---------------------------------------------------------
D|---------------------------------------------------------
A|---------------------------------------------------------
B|---------------------------------------------------------

Add Wah Effects
e|------------------------------------------------\
B|------------------------------------------------ \             \
G|------------------------------------------------  \Times Three  \
D|--------------------12------------------12------  /              \
A|---14P12--14P12--14-----14---14P12--14-----14P12 /                \This Whole
B|------------------------------------------------/                 /Thing 2X
                                                                   /
e|-------------------------------------------------------------|  /
B|-------------------------------------------------------------|
G|-------------------------------------------------------------|
D|--14B16--14--12--14B16--14--12--14B16--14--12--14B16--14--12-|
A|-------------------------------------------------------------|
B|-------------------------------------------------------------|

Repeats this while Chris sings:

e|-------------------------------------------------------------| 
B|-------------------------------------------------------------|
G|-------------------------------------------------------------|
D|--14B16--14--12--14B16--14--12--14B16--14--12--14B16--14--12-|
A|-------------------------------------------------------------|
B|-------------------------------------------------------------|

Back to the Chorus:

e|------------------------------------------------------------------
B|------------------------------------------------------------------
G|------------------------------------------------------------------
D|------------------------------------------------------------------
A|------------------------------------------------------------------
B|---12//---0--0---3H5---0--10H12---12//---3P0--0---3H5---0--10H12--


e|----------------------------------------------------------------
B|----------------------------------------------------------------
G|----------------------------------------------------------------
D|----------------------------------------------------------------
A|----------------------------------------------------------------
B|12//---3P0--0---3H5---0--10H12--12//---3P0--0---3H5---0--10H12--


e|-------------------------------------------------------------------------
B|-------------------------------------------------------------------------
G|-------------------------------------------------------------------------
D|-------------------------------------------------------------------------
A|-----------------------5--2--------0H2------------------5--2--------0H2--
B|12//---0--0---3H5---0--------5--3-------0--0---3H5---0--------5--3-------


e|----------------------------------------------------------------|
B|----------------------------------------------------------------|
G|----------------------------------------------------------------|
D|----------------------------------------------------------------|
A|-------------------5--2--------0H2------------------------------|
B|---0--0---3H5---0--------5--3--------12---10---7---5---3--3--0--|


e|------------------------------------------------------
B|------------------------------------------------------
G|------------------------------------------------------
D|------------------------------------------------------
A|------------------------------------------------------
B|---0--0---3H5---0--10H12---12---10---7---5---3--3--0--

e|------------------------------------------------------|
B|------------------------------------------------------|
G|------------------------------------------------------|
D|------------------------------------------------------|
A|------------------------------------------------------|
B|---0--0---3H5---0--10H12---12---10---7---5---3--3--0--|
Komentari
Još nema komentara