Riblja Čorba

Amsterdam (uvod)

by: Spike 1234

Pronađi akord!

Ne znaš kako odsvirati neki od akorda pjesmi Amsterdam (uvod)? Upiši akord u tražilicu i saznaj!

Traženi akord će se prikazati ovdje

Od istog izvođača

Pregledano 4762 puta
Pregledano 17287 puta
Pregledano 7502 puta
Pregledano 1265 puta
Pregledano 9570 puta
Trebaš ritam za ovu pjesmu? Pronađi ga ovdje
Akordi/Tabovi:
E||----------------------------|--------------------------|
B||------0-1-0-----------------|--------------------------|
G||--2---------2------0-2-0----|--------------------------|
D||---------------3---------3--|--2--0--------------------|
A||----------------------------|--------3--2--0--2--3--0--|
E||----------------------------|--------------------------|

                           
----------------------------|--------------------------|
------0-1-0-----------------|--------------------------|
--2---------2------0-2-0----|--------------------------|
---------------3---------3--|--2--0--------------------|
----------------------------|--------3--2--0--L--L--L--|
----------------------------|--------------------------|
Komentari

crew kaže:

postoji jednostavnija verzija ali ovo nije loše

18-07-2009 13:52

crew kaže:

smilie_bandana:2gunssmilie:rockon:dots

18-07-2009 13:56

crew kaže:

[f][/f]

22-07-2009 19:03

crew kaže:

aa

22-07-2009 19:03

crew kaže:

[t=thumbnail][/t]

22-07-2009 19:03

crew kaže:

:stupid

22-07-2009 19:03

bana123 kaže:

mislim da ovo nije točno

18-08-2009 14:30

taratumba kaže:

jwesd

21-10-2009 13:35

MerkasMiGitaru kaže:

Svidja mi ... se samo nerazumijem ovo L L L ??

12-07-2012 13:55