Đorđe Balašević

Caletova Pesma(solo 1)

by: faLLen_angel

Pronađi akord!

Ne znaš kako odsvirati neki od akorda pjesmi Caletova Pesma(solo 1)? Upiši akord u tražilicu i saznaj!

Traženi akord će se prikazati ovdje

Od istog izvođača

Pregledano 4694 puta
Pregledano 31904 puta
Pregledano 11469 puta
Pregledano 16259 puta
Pregledano 7033 puta
Trebaš ritam za ovu pjesmu? Pronađi ga ovdje
Akordi/Tabovi:
             caletova pesma

solo 1
E||------------------------------------------------|
B||--7h8---8--7-----7--8-----7--7---7-----------7--|
G||--------------9---------------------9--7--9-----|
D||------------------------------------------------|
A||------------------------------------------------|
E||------------------------------------------------|
                                                                             
E||------------------------------------------------|
B||----------------------8--7--------------7---10--|
G||--9---9--7--6---------------9--7---9------------|
D||---------------9--8-----------------------------|
A||------------------------------------------------|
E||------------------------------------------------|
                                                                         
E||------------------------------------------------|
B||--8----8--7----8------7----8--7-----7----8------|
G||---------------------------------9-----------9--|
D||------------------------------------------------|
A||------------------------------------------------|
E||------------------------------------------------|
                                                                   
E||------------------------------------------------|
B||--7----7------7-------7-------------------------|
G||----------9--------9-----9--7--6-------6--7-----|
D||------------------------------------9--------9--|
A||------------------------------------------------|
E||------------------------------------------------|
                                                                     
E||-----------------------------------------------||
B||--------------------------8-----7--------------||
G||--9------9--7--6-------------------------------||
D||------------------9--8---------------8------9--||
A||-----------------------------------------------||
E||-----------------------------------------------||
Komentari
Još nema komentara