Darko Rundek

Ruke

by: faLLen_angel

Pronađi akord!

Ne znaš kako odsvirati neki od akorda pjesmi Ruke? Upiši akord u tražilicu i saznaj!

Traženi akord će se prikazati ovdje

Od istog izvođača

Pregledano 9258 puta
Pregledano 5840 puta
Pregledano 9587 puta
Pregledano 11174 puta
Pregledano 10606 puta
Trebaš ritam za ovu pjesmu? Pronađi ga ovdje
Akordi/Tabovi:
                   ruke

   akordi
E||--------------------------------------------------|
B||-----1-----1----1-----0-------1----1-----0-----0--|
G||-----2-----2----2-----0-------2----2-----0-----0--|
D||--------------------------------------------------|
A||--0-----0----------0-------3----------------------|
E||--------------------------------------3-----3-----|


   tema
E||-----------------------------------------|
B||-----------------------------------------|
G||--9----9--7--9---10--9--7-------------7--|
D||---------------------------10--9--10-----|
A||-----------------------------------------|
E||-----------------------------------------|
                                                                       
E||----------------------------------------||
B||----------------------------------5h-6--||
G||--10--9------------9---7----------------||
D||---------10--7------------9--5----------||
A||----------------------------------------||
E||----------------------------------------||
Komentari
Još nema komentara