Gibonni

Zlatne Godine(solo)

by: faLLen_angel

Pronađi akord!

Ne znaš kako odsvirati neki od akorda pjesmi Zlatne Godine(solo)? Upiši akord u tražilicu i saznaj!

Traženi akord će se prikazati ovdje

Od istog izvođača

Pregledano 40997 puta
Pregledano 94825 puta
Pregledano 4898 puta
Pregledano 15731 puta
Pregledano 11535 puta
Trebaš ritam za ovu pjesmu? Pronađi ga ovdje
Akordi/Tabovi:
             zlatne godine

                                             
E||--17b19------17------17------------------------|
B||----------19----19------19h17------------------|
G||------------------------------18h16------------|
D||------------------------------------19h17--19--|
A||-----------------------------------------------|
E||-----------------------------------------------|
                                                     
E||-----------------------------------------------|
B||----------------------19-----------------------|
G||-------------------16--------------------------|
D||----------------19-----------------------------|
A||--19h17------19----------17----------17----19--|
E||--------19b21---------------19h17h19----19-----|
                                                                   
E||-----------------------------------------------|
B||-------------------------------------------14--|
G||--16b18r16------16---------------------14------|
D||-------------18----18---16----16---16----------|
A||---------------------------18------------------|
E||-----------------------------------------------|
                                                                           
E||---------------------------11----12----18-19--||
B||--19r17--14----14----14-----------------------||
G||------------16----12----12----12----13--------||
D||----------------------------------------------||
A||----------------------------------------------||
E||----------------------------------------------||
Komentari
Još nema komentara