Film

Sjećam Se Prvog Poljupca(tema)

by: faLLen_angel

Pronađi akord!

Ne znaš kako odsvirati neki od akorda pjesmi Sjećam Se Prvog Poljupca(tema)? Upiši akord u tražilicu i saznaj!

Traženi akord će se prikazati ovdje

Od istog izvođača

Pregledano 377 puta
Pregledano 28671 puta
Pregledano 189 puta
Pregledano 11538 puta
Pregledano 20115 puta
Trebaš ritam za ovu pjesmu? Pronađi ga ovdje
Akordi/Tabovi:
              sjecam se prvog poljupca

E||-----------------------------------------------------------------|
B||---------------------------10--9-----------10--9--------9--------|
G||--9~------8--9--11-----------------9--11-----------11-----11--9--|
D||------9-------------9---9----------------------------------------|
A||-----------------------------------------------------------------|
E||-----------------------------------------------------------------|

E||----------------------------------------------------------------||
B||---------------------------10--9-----------10--9--------9-------||
G||--9~------8--9--11-----------------9--11-----------11-------11--|| 2x
D||------9-------------9---9---------------------------------------||
A||----------------------------------------------------------------||
E||----------------------------------------------------------------||
Komentari
Još nema komentara