Film

Srce Na Cesti(tema,solo)

by: faLLen_angel

Pronađi akord!

Ne znaš kako odsvirati neki od akorda pjesmi Srce Na Cesti(tema,solo)? Upiši akord u tražilicu i saznaj!

Traženi akord će se prikazati ovdje

Od istog izvođača

Pregledano 5684 puta
Pregledano 501 puta
Pregledano 3290 puta
Pregledano 4225 puta
Pregledano 20429 puta
Trebaš ritam za ovu pjesmu? Pronađi ga ovdje
Akordi/Tabovi:
            srce na cesti

        Am         C          F             C
E||--------------------------------------------|
B||----------1---------------------------------|
G||-----2-------2--0---------------------------|
D||--0----------------2----2--0----------------|
A||------------------------------3----0-----3--|
E||--------------------------------------3-----|

       Am         C          F             C
E||--------------------------------------------|
B||----------1---------------------------------|
G||-----2-------2--0---------------------------|
D||--0----------------2----2--0----------------|
A||------------------------------3----0-----0--|
E||--------------------------------------3-----|



   solo
E||-----5----8--5-----------------|
B||--5-------------8--8--8--5--8--|
G||-------------------------------|
D||-------------------------------|
A||-------------------------------|
E||-------------------------------|
                                                                         
E||-------------------------------|\
B||------------5--8---8--8--5--8--| \
G||--7--5---7---------------------|  \ 4x
D||-------------------------------|  /
A||-------------------------------| /
E||-------------------------------|/
Komentari

Dr.House kaže:

very nice
:guitarist

24-11-2008 20:19

Mustafa Curic kaže:

Fino..

03-03-2009 00:26

tommy15 kaže:

Orignal uvod...

E||--------------------------------------------|
B||--------------------------------------------|
G||--2---5---2---0-----------------------------|
D||--2--------------2--2--0--------------------|
A||--------------------------3----------3------|
E||-----------------------------5---3----------|


E||--------------------------------------------|
B||--------------------------------------------|
G||--2---5--2--0-------------------------------|
D||--2-------------2--2--0---------------------|
A||--------------------------3----------7------|
E||-----------------------------5---3----------|

E||--------------------------------------------|
B||--------------------------------------------|
G||--2---5--2--0-------------------------------|
D||--2--------------2--2--0--------------------|
A||---------------------------3----------3-----|
E||------------------------------5---3---------|

E||--------------------------------------------|
B||--------------------------------------------|
G||--2---5--2--0-------------------------------|
D||--2--------------2--2--0--------------------|
A||---------------------------3----------------|
E||-------------------------------5---3---5----|

17-04-2009 15:59

srpskimiletic kaže:

ovo nevalja nista ali ozbiljno

23-05-2009 23:39

crew kaže:

nevalja

18-07-2009 14:05