Riblja Čorba

ja je gledam kako spava(solo)

by: faLLen_angel

Pronađi akord!

Ne znaš kako odsvirati neki od akorda pjesmi ja je gledam kako spava(solo)? Upiši akord u tražilicu i saznaj!

Traženi akord će se prikazati ovdje

Od istog izvođača

Pregledano 15342 puta
Pregledano 1226 puta
Pregledano 10049 puta
Pregledano 2496 puta
Pregledano 45476 puta
Trebaš ritam za ovu pjesmu? Pronađi ga ovdje
Akordi/Tabovi:
            ja je gledam kako spava

E||----------------------------------------------|
B||--17b19--------17--15----14--15h14------------|
G||-------------------------------------16-------|
D||------------------------------------------16--|
A||----------------------------------------------|
E||----------------------------------------------|
                                                           
E||-----------------------17---------------------|
B||--17b19---15h17h15-14------14---15h14---------|
G||--------------------------------------16h-14--|
D||----------------------------------------------|
A||----------------------------------------------|
E||----------------------------------------------|
                                                             
E||----------------------------------------------|
B||----------------------------------------------|
G||--14------------------------------------------|
D||-------17--16--17--16--14---16---14h16h14-----|
A||------------------------------------------17--|
E||----------------------------------------------|
                                                                               
E||-----------------------------12--10h12h10-----|
B||--15-12----------------12-15--------------14--|
G||--------13----------13------------------------|
D||-----------15-12-15---------------------------|
A||----------------------------------------------|
E||----------------------------------------------|
                                                         
E||----------------------------------------------|
B||--14--15--14--------------14--15--14----------|
G||--------------16----------------------16------|
D||------------------16----------------------16--|
A||----------------------------------------------|
E||----------------------------------------------|
                                                             
E||-------14-------------------------------------|
B||--15-------15-------------14--15--14----------|
G||---------------16---------------------14------|
D||-------------------16---------------------14--|
A||----------------------------------------------|
E||----------------------------------------------|
                                                   
E||----------------------------------------------|
B||----------------------------------------------|
G||----------------------------------------------|
D||---------------14--------16--17h16---14---16--|
A||--17--16--17----------------------------------|
E||----------------------------------------------|

E||----------------------------------------------|
B||--15-12-14----12-------12---------------------|
G||-----------14----12-14----14-12-11----12--11--|
D||-----------------------------------14---------|
A||----------------------------------------------|
E||----------------------------------------------|
                                                                               
E||----------------------------------------------|
B||----------------------------------------------|
G||----------11----------------------------------|
D||--14--12------12--11------12--11------11------|
A||----------------------14----------14------12--|
E||----------------------------------------------|

E||--------------------------------------12------|
B||--12-15-12--------------------12--15------15--|
G||-----------13-------------13------------------|
D||--------------15--12--15----------------------|
A||----------------------------------------------|
E||----------------------------------------------|
                                 
E||---------------------------||
B||--14h15h14-----------------||
G||------------16-15--16------||
D||-----------------------16--||
A||---------------------------||
E||---------------------------||
Komentari
Još nema komentara