Riblja Čorba

hocu majko,hocu(tema)

by: faLLen_angel

Pronađi akord!

Ne znaš kako odsvirati neki od akorda pjesmi hocu majko,hocu(tema)? Upiši akord u tražilicu i saznaj!

Traženi akord će se prikazati ovdje

Od istog izvođača

Pregledano 7440 puta
Pregledano 6223 puta
Pregledano 2310 puta
Pregledano 4838 puta
Pregledano 6892 puta
Trebaš ritam za ovu pjesmu? Pronađi ga ovdje
Akordi/Tabovi:
               riblja corba
                    hocu majko,hocu

     C               G               F               C
E||--12-12-12-12-12----------------------------------------------|
B||------------------13--15--15------13-13-13-13-13--------------|
G||--------------------------------------------------14--14--12--|
D||--------------------------------------------------------------|
A||--------------------------------------------------------------|
E||--------------------------------------------------------------|

     C               G              F               C             
E||--12-12-12-12-12-----------------15-13-12--------------------||\
B||------------------13--15--15--------------15-13--12--13--13--|| \
G||-------------------------------------------------------------||  \ 2x
D||-------------------------------------------------------------||  /
A||-------------------------------------------------------------|| /
E||-------------------------------------------------------------||/
Komentari
Još nema komentara