Plavi Orkestar

Zauvjek(solo)

by: faLLen_angel

Pronađi akord!

Ne znaš kako odsvirati neki od akorda pjesmi Zauvjek(solo)? Upiši akord u tražilicu i saznaj!

Traženi akord će se prikazati ovdje

Od istog izvođača

Pregledano 96832 puta
Pregledano 8073 puta
Pregledano 13063 puta
Pregledano 5145 puta
Pregledano 2715 puta
Trebaš ritam za ovu pjesmu? Pronađi ga ovdje
Akordi/Tabovi:
        plavi orkestar
                zauvjek


E||----------------------------------------|
B||--8---7---5-------------8---7---5-------|
G||---------------5---------------------4--|
D||----------------------------------------|
A||----------------------------------------|
E||----------------------------------------|

E||----------------------------------------|
B||--8---7---5-------------8---7---5-------|
G||---------------5---------------------8--|
D||----------------------------------------|
A||----------------------------------------|
E||----------------------------------------|                       
                                                                   
E||--15---14---12-------15---14---12-------|
B||----------------13------------------12--|
G||----------------------------------------|
D||----------------------------------------|
A||----------------------------------------|
E||----------------------------------------|

E||--15---14---12-------15---17---14---15--|
B||----------------13----------------------|
G||----------------------------------------|
D||----------------------------------------|
A||----------------------------------------|
E||----------------------------------------|           
                                                                                                                                       
E||--12~----------------------------------||
B||---------------------------------------||
G||-----------------------------------16--||
D||-------------------14--16----17--------||
A||---------------------------------------||
E||---------------------------------------||
Komentari
Još nema komentara