Plavi Orkestar

od rodjendana do rodjendana(solo)

by: faLLen_angel

Pronađi akord!

Ne znaš kako odsvirati neki od akorda pjesmi od rodjendana do rodjendana(solo)? Upiši akord u tražilicu i saznaj!

Traženi akord će se prikazati ovdje

Od istog izvođača

Pregledano 5579 puta
Pregledano 7999 puta
Pregledano 8039 puta
Pregledano 4437 puta
Pregledano 874 puta
Trebaš ritam za ovu pjesmu? Pronađi ga ovdje
Akordi/Tabovi:
   plavi orkestar
      od rodjendana od rodjendana

E||----------------------------------------------------|
B||----------------------------------------------------|
G||----------------------------------------------------|
D||--9--11--------9--9---------------------------------|
A||----------12-----------12----12---12--12-11-9----9--|
E||----------------------------------------------12----|
                                                                         
E||----------------------------------------------------|
B||----------------------------------------------------|
G||-------------------6-------------------------9--11--|
D||------7-9------7-------7-9---9--9---7---7-----------|
A||--9-------9-----------------------------------------|
E||----------------------------------------------------|
                                               
E||---------------------------12--12--12----------------------||
B||---------10----10------14--------------12------------------||
G||--11--11----11-----11----------------------14--11--14--14--||
D||-----------------------------------------------------------||
A||-----------------------------------------------------------||
E||-----------------------------------------------------------||
Komentari

IgorJakovljevic kaže:

E||----------------------------------------------------|
B||----------------------------------------------------|
G||----------------------------------------------------|
D||--9--11---9^---7--9-------------9--11---9^------7---|
A||----------------------------------------------------|
E||----------------------------------------------------|

E||----------------------------------------------------|
B||----------------------------------------------------|
G||----------------------------------------------------|
D||-7-6-7-6-7-9----7---9--11-----7--9--7---------------|
A||----------------------------------------------------|
E||----------------------------------------------------|

E||----------------------------------------------------|
B||----------------------------------------------------|
G||----------------------------------------------------|
D||--9--11---9^---7--9-------------9--11---16----------|
A||----------------------------------------------------|
E||----------------------------------------------------|



E||-----------------------------------------------------------||
B||-----------------------12^14-12^14---10-10-12--10-9--9---10||
G||---------9----9 -------------------------------------------||
D||----9-11---11----------------------------------------------||
A||-----------------------------------------------------------||
E||-----------------------------------------------------------||

11-05-2011 17:06