Plavi Orkestar

linija zivota(solo)

by: faLLen_angel

Pronađi akord!

Ne znaš kako odsvirati neki od akorda pjesmi linija zivota(solo)? Upiši akord u tražilicu i saznaj!

Traženi akord će se prikazati ovdje

Od istog izvođača

Pregledano 5955 puta
Pregledano 7811 puta
Pregledano 621 puta
Pregledano 7850 puta
Pregledano 7157 puta
Trebaš ritam za ovu pjesmu? Pronađi ga ovdje
Akordi/Tabovi:
         plavi orkestar
              linija zivota


E||---------------------------------------5-7-7--|
B||-------------------------------------5-----5--|
G||--5--7--4--5--------5--7--4--5----------------|
D||---------------7-----------------7------------|
A||----------------------------------------------|
E||----------------------------------------------|
                                                                       
E||--7---5---------------------------------------|
B||-----------5----------------------------------|
G||-----------------7---5---7h5---------5-----7--|
D||-------------------------------7--------------|
A||----------------------------------------------|
E||----------------------------------------------|
                                                                 
E||---------------------------------------------||
B||---------------------------------------------||
G||--7------5h4h5-------------------------------||
D||-----------------7---------------------------||
A||------------------------------5---3----------||
E||--------------------------------------5------||
Komentari
Još nema komentara