Željko Bebek

ne placi,ne zali(solo)

by: faLLen_angel

Pronađi akord!

Ne znaš kako odsvirati neki od akorda pjesmi ne placi,ne zali(solo)? Upiši akord u tražilicu i saznaj!

Traženi akord će se prikazati ovdje

Od istog izvođača

Pregledano 3234 puta
Pregledano 25826 puta
Pregledano 23537 puta
Pregledano 7287 puta
Pregledano 3115 puta
Trebaš ritam za ovu pjesmu? Pronađi ga ovdje
Akordi/Tabovi:
zeljko bebek
           ne placi,ne zali


E||--15---13-15h13h15-------13h15----15----15--|
B||--------------------16---------16----16-----|
G||--------------------------------------------|
D||--------------------------------------------|
A||--------------------------------------------|
E||--------------------------------------------|
                                                         
E||--------------------------------------------|
B||--------------------------------------------|
G||--16h15---6--7-------------10---9---10------|
D||----------------8-7-8-------------------12--|
A||-----------------------10-------------------|
E||--------------------------------------------|
                                                     
E||--------------------------------------------|
B||--------------------------------------------|
G||----------------------------------------12--|
D||--13h12------------10-12-13-------12--------|
A||--------10--12-13---------------------------|
E||--------------------------------------------|
                                     
E||--------------------------------------------|
B||--15--13--15-----------15---------------15--|
G||-----------------15---------14h15--12-------|
D||--------------------------------------------|
A||--------------------------------------------|
E||--------------------------------------------|
                                                                 
E||---------------------------------------15--||
B||----------------------15-------------------||
G||--15-14-15---14-15---------14-15-----------||
D||----------------------------------17-------||
A||-------------------------------------------||
E||-------------------------------------------||
Komentari
Još nema komentara