Željko Bebek

puca mi u glavi(uvod)

by: faLLen_angel

Pronađi akord!

Ne znaš kako odsvirati neki od akorda pjesmi puca mi u glavi(uvod)? Upiši akord u tražilicu i saznaj!

Traženi akord će se prikazati ovdje

Od istog izvođača

Pregledano 3197 puta
Pregledano 7297 puta
Pregledano 21720 puta
Pregledano 8926 puta
Pregledano 3574 puta
Trebaš ritam za ovu pjesmu? Pronađi ga ovdje
Akordi/Tabovi:
zeljko bebek
                   puca mi u glavi


E||---------------------------------------0-------------------|
B||---------0----------------------2---------2----------0-----|
G||--1---------1----------------------------------------------|
D||-----2--------2-----2---4--2-------4-2------4-4--4-2----4--|
A||-------2---------4----2------------------------------------|
E||-----------------------------------------------------------|

                                                             
E||---------2-------------------------------------------------|
B||--4--0------4-0----0---2--0---------0----------------------|
G||----------------1-------------1--------1-------------------|
D||-------4-------------4-----------2-------2----2-----2------|
A||-----------------------------------2-------4----2-4---2----|
E||--------------------------------------------------------4--|
Komentari

sarlita kaže:

Jel može netko napisati koji su akordi?
Unaprije hvala :)

18-04-2010 18:14