Željko Bebek

s nogu sam te mala popio(tema,solo)

by: faLLen_angel

Pronađi akord!

Ne znaš kako odsvirati neki od akorda pjesmi s nogu sam te mala popio(tema,solo)? Upiši akord u tražilicu i saznaj!

Traženi akord će se prikazati ovdje

Od istog izvođača

Pregledano 3196 puta
Pregledano 826 puta
Pregledano 29199 puta
Pregledano 19353 puta
Pregledano 4916 puta
Trebaš ritam za ovu pjesmu? Pronađi ga ovdje
Akordi/Tabovi:
zeljko bebek
    s nogu sam te mala popio


main riff
E||---------------------------------|
B||---------------------------------|
G||---------------------------------|
D||-------7---5--5---4--------------|
A||---------------------5--7--------|
E||--5------------------------8--5--|



solo
E||-------------14----------------------------|
B||------15------------15-----13--12----------|
G||--14--------------------------------14-----|
D||----------------------------------------14-|
A||-------------------------------------------|
E||-------------------------------------------|
                                                                     
E||------------------14--------17---------14--|
B||-------------15--------15--------15--------|
G||-------------------------------------------|
D||-------------------------------------------|
A||---15---12---------------------------------|
E||-------------------------------------------|
                                                                           
E||------------------16--------24---24---24--||
B||--15--------17---------17-----------------||
G||-------13---------------------------------||
D||-------14---------------------------------||
A||------------------------------------------||
E||------------------------------------------||
Komentari
Još nema komentara