Željko Bebek

ti nemas pojma(tema)

by: faLLen_angel

Pronađi akord!

Ne znaš kako odsvirati neki od akorda pjesmi ti nemas pojma(tema)? Upiši akord u tražilicu i saznaj!

Traženi akord će se prikazati ovdje

Od istog izvođača

Pregledano 76985 puta
Pregledano 8403 puta
Pregledano 79875 puta
Pregledano 3465 puta
Pregledano 3119 puta
Trebaš ritam za ovu pjesmu? Pronađi ga ovdje
Akordi/Tabovi:
       zeljko bebek
          ti nemas pojma


E||--15--15-----13-12----15--15--------13--12-----|
B||---------15--------15--------15--15--------15--|
G||-----------------------------------------------|
D||-----------------------------------------------|
A||-----------------------------------------------|
E||-----------------------------------------------|

                                                       
E||--15--15----13-12----15--15---------13-12h13h12--|
B||---------15-------15---------15-15---------------|
G||-------------------------------------------------|
D||-------------------------------------------------|
A||-------------------------------------------------|
E||-------------------------------------------------|

                                                     
E||------15--15----13-12----15--15--------15--12h13h12--|
B||--15---------15-------15---------15-15---------------|
G||-----------------------------------------------------|
D||-----------------------------------------------------|
A||-----------------------------------------------------|
E||-----------------------------------------------------|

                                                                               
E||------15---15--15----15--15--15--15------15--||
B||--15-----------------------------------------||
G||---------------------------------------------||
D||---------------------------------------------||
A||---------------------------------------------||
E||---------------------------------------------||
Komentari
Još nema komentara