Leb I Sol

skakavac(tema)

by: faLLen_angel

Pronađi akord!

Ne znaš kako odsvirati neki od akorda pjesmi skakavac(tema)? Upiši akord u tražilicu i saznaj!

Traženi akord će se prikazati ovdje

Od istog izvođača

Pregledano 2463 puta
Pregledano 3572 puta
Pregledano 2370 puta
Pregledano 42649 puta
Pregledano 2862 puta
Trebaš ritam za ovu pjesmu? Pronađi ga ovdje
Akordi/Tabovi:
                   leb i sol
                   skakavac

E||----------------------------------------------|
B||----------------------------------------------|
G||----------------------------------------------|
D||------7--10--8--------------7--10--8----------|
A||--8-------------10--7--8---------------10--7--|
E||----------------------------------------------|
                                                   
E||---------------------------------------------||
B||---------------------------------------------||
G||------------------------7--------------------||
D||--10---7---------7--10--------7--------------||
A||----------8--10------------------8--10----7--||
E||---------------------------------------------||
Komentari

bane2407 kaže:

ovo nema veze,de uzmi pa skini ponovo ili da ti napisem?

03-02-2009 01:18

MrBam kaže:

napisi :P

02-03-2009 00:38