Film

Ljubav Je Zakon(uvod)

by: faLLen_angel

Pronađi akord!

Ne znaš kako odsvirati neki od akorda pjesmi Ljubav Je Zakon(uvod)? Upiši akord u tražilicu i saznaj!

Traženi akord će se prikazati ovdje

Od istog izvođača

Pregledano 47941 puta
Pregledano 3290 puta
Pregledano 5002 puta
Pregledano 21308 puta
Pregledano 8655 puta
Trebaš ritam za ovu pjesmu? Pronađi ga ovdje
Akordi/Tabovi:
                  film
                  ljubav je zakon


E||--17--17--17--17--19----17--------------------------------|\
B||--------------------------------20--20--20--20--17----20--| \
G||----------------------------------------------------------|  \ 2x
D||----------------------------------------------------------|  /
A||----------------------------------------------------------| /
E||----------------------------------------------------------|/

E||--17--17--17--17--19----17--------------------------------|
B||------------------------------20--20--20--20--17----------|
G||--------------------------------------------------19--17--| 
D||----------------------------------------------------------| 
A||----------------------------------------------------------|
E||----------------------------------------------------------|

E||----------------------------------------------------------|
B||------------------17--------------------------------------|
G||--19--19--19--19-------19---------------------------------|
D||-----------------------------19--19--19--19--19---19--19--|
A||----------------------------------------------------------|
E||----------------------------------------------------------|
Komentari
Još nema komentara