Bajaga

lepa janja ribareva kci(uvod)

by: faLLen_angel

Pronađi akord!

Ne znaš kako odsvirati neki od akorda pjesmi lepa janja ribareva kci(uvod)? Upiši akord u tražilicu i saznaj!

Traženi akord će se prikazati ovdje

Od istog izvođača

Pregledano 202 puta
Pregledano 44208 puta
Pregledano 5253 puta
Pregledano 23516 puta
Pregledano 825 puta
Trebaš ritam za ovu pjesmu? Pronađi ga ovdje
Akordi/Tabovi:
             
              bajaga
      lepa janja ribareva kci

uvod
E||-------------------------------------------|\
B||--5--7--7--5--7--7--5--7-------------------| \
G||-------------------------------------------|  \ 3x
D||----------------------------6--7--7--6--7--|  /
A||-------------------------------------------| /
E||-------------------------------------------|/

E||-----------------------12--||
B||-----------10----12--------||
G||---------------------------||
D||------12-------------------||
A||--10-----------------------||
E||---------------------------||
Komentari
Još nema komentara