Bajaga

Pesma Protiv Malera(tema)

by: faLLen_angel

Pronađi akord!

Ne znaš kako odsvirati neki od akorda pjesmi Pesma Protiv Malera(tema)? Upiši akord u tražilicu i saznaj!

Traženi akord će se prikazati ovdje

Od istog izvođača

Pregledano 16189 puta
Pregledano 10304 puta
Pregledano 8078 puta
Pregledano 60262 puta
Pregledano 30900 puta
Trebaš ritam za ovu pjesmu? Pronađi ga ovdje
Akordi/Tabovi:
                    bajaga
              pesma protiv malera


E||------------------12----13---12-----------------|
B||--15--15--14--15----------------15--14--15------|
G||--------------------------------------------15--|
D||------------------------------------------------|
A||------------------------------------------------|
E||------------------------------------------------|

                                                                               
E||-----------------------------------------------||
B||-----------------------------------------------||
G||--14---12--------------12----------------------||
D||-----------15--14--15--------15----14-----12---||
A||-----------------------------------------------||
E||-----------------------------------------------||
Komentari
Još nema komentara