Gibonni

Andjeo U Tebi(uvod,solo)

by: faLLen_angel

Pronađi akord!

Ne znaš kako odsvirati neki od akorda pjesmi Andjeo U Tebi(uvod,solo)? Upiši akord u tražilicu i saznaj!

Traženi akord će se prikazati ovdje

Od istog izvođača

Pregledano 11498 puta
Pregledano 8482 puta
Pregledano 26722 puta
Pregledano 4400 puta
Pregledano 9911 puta
Trebaš ritam za ovu pjesmu? Pronađi ga ovdje
Akordi/Tabovi:
            gibonni
               andjeo u tebi

uvod

E||--------------------5----5--------|
B||------8-----------8----8---8---5--|
G||----7---9--------------------7----|
D||--7-------------------------------|
A||----------------------------------|
E||----------------------------------|


solo 1

E||-----------------19------17------------------------------|
B||--20-19-17-17-20----20------17-20-17-20-17----17-17------|
G||-------------------------------------------19--------19--|
D||---------------------------------------------------------|
A||---------------------------------------------------------|
E||---------------------------------------------------------|

                                                           
E||--20--19---17-----17-19----------17-----|
B||--------------20--------20-19-20----17--|
G||----------------------------------------|
D||----------------------------------------|
A||----------------------------------------|
E||----------------------------------------|

                                                                   
E||--19-20-19---17----17-----------19-20-19----19-17----17--|
B||----------------20----17---17---------------------20-----|
G||---------------------------------------------------------|
D||---------------------------------------------------------|
A||---------------------------------------------------------|
E||---------------------------------------------------------|

                                                     
E||--19-------------------------------------------------|
B||-----20----------------------------------------15-17-|
G||--------------19----------------------------16-------|
D||--------21-21----22-21-19-21h19----19----17----------|
A||--------------------------------22----19-------------|
E||-----------------------------------------------------|

                                                           
E||-----------------------------------------12-----------------||
B||--17--15-------15---------------------12----15h12-----------||
G||---------16h14----16h14----14------14-------------14h12-----||
D||------------------------17----17------------------------14--||
A||---------------------------------19-------------------------||
E||------------------------------------------------------------||


solo 2

E||--------------------------------17-17------------------------|
B||--20-20--19-17--------17-19-20---------19-17-------17-19-20--|
G||---------------16-16-------------------------16-16-----------|
D||-------------------------------------------------------------|
A||-------------------------------------------------------------|
E||-------------------------------------------------------------|

                                                                           
E||--19-19-----------------------------------------------------||
B||---------20-------------------------------------------------||
G||------------21-----------19---------------------------------||
D||---------------21-21--22----22-21--22-21h22-19--------------||
A||-----------------------------------------------22-21-22-19--||
E||------------------------------------------------------------||
Komentari
Još nema komentara