Riblja Čorba

kad sam bio mlad(solo)

by: faLLen_angel

Pronađi akord!

Ne znaš kako odsvirati neki od akorda pjesmi kad sam bio mlad(solo)? Upiši akord u tražilicu i saznaj!

Traženi akord će se prikazati ovdje

Od istog izvođača

Pregledano 3225 puta
Pregledano 10049 puta
Pregledano 2998 puta
Pregledano 10928 puta
Pregledano 10269 puta
Trebaš ritam za ovu pjesmu? Pronađi ga ovdje
Akordi/Tabovi:
                     riblja corba
                  kad sam bio mlad



E||--------------8--10b12-10--10--------------8--10b12r10--8-10--10--|
B||-----10--10~----------------------10--10~-------------------------|
G||--9----------------------------9----------------------------------|
D||------------------------------------------------------------------|
A||------------------------------------------------------------------|
E||------------------------------------------------------------------|

                                                                           
E||--10---8----------------------------------------------------------|
B||----------10-----8----10~----10-8---------------------------------|
G||--------------9-------------------9-7b9r7------7---9--------------|
D||-------------------------------------------10---------10h7----7~--|
A||-----------------------------------------------------------10-----|
E||------------------------------------------------------------------|

                                                                     
E||--10---10---8----------10b12r10---8--10------8--8b10r8------------|
B||-----------------10~---------------------10--------------10--10~--|
G||------------------------------------------------------------------|
D||------------------------------------------------------------------|
A||------------------------------------------------------------------|
E||------------------------------------------------------------------|

                                                                                                                 
E||----------------------------------------5------------------------||
B||-----10--10~------------------------------5h8h5---5--------------||
G||--9----------7b9-7--5--7--7h5-------7b9---------7---5-7-5--------||
D||------------------------------7--5------------------------7h5h7--||
A||-----------------------------------------------------------------||
E||-----------------------------------------------------------------||
Komentari

nidza021 kaže:

11-05-2010 20:30

Racicka998 kaže:

07-09-2012 16:54