Daleka Obala

morska vila(uvod)

by: faLLen_angel

Pronađi akord!

Ne znaš kako odsvirati neki od akorda pjesmi morska vila(uvod)? Upiši akord u tražilicu i saznaj!

Traženi akord će se prikazati ovdje

Od istog izvođača

Pregledano 8507 puta
Pregledano 6720 puta
Pregledano 6272 puta
Pregledano 17966 puta
Pregledano 12701 puta
Trebaš ritam za ovu pjesmu? Pronađi ga ovdje
Akordi/Tabovi:
   daleka obala
          morska vila


E||---------------12-13h12-----------------|
B||--13~-------13----------13~-------------|
G||---------12-------------------12b14h12--|
D||----------------------------------------|
A||----------------------------------------|
E||----------------------------------------|


E||--15--------15----13-----------|
B||---------12----12----12-17r15--|
G||-------------------------------|
D||-------------------------------|
A||-------------------------------|
E||-------------------------------|

                                                                               
E||-------------12-13h12-----------------||
B||--13~-----13----------13~-------------||
G||-------12-------------------12b14h12--||
D||--------------------------------------||
A||--------------------------------------||
E||--------------------------------------||
Komentari

Tex kaže:

Super...:thumbsup

23-01-2009 18:08

gitarmen kaže:

svaka čast

24-01-2009 12:41

neuerschalke kaže:

odlično je!!!

24-01-2009 12:48

pipo rock26 kaže:

predobro
:drinks

28-01-2009 11:50

Smash_N_Burn kaže:

kaj znači ovo `r`




--12-17r15--|

29-01-2009 22:25

Tex kaže:

krivo su napisali treba bit 17p15 a ne r inace r znaci realese bend

30-01-2009 11:00

Smash_N_Burn kaže:

ok.. tnx

30-01-2009 22:26

Pevec kaže:

super :)

30-01-2009 23:32

nixxl28 kaže:

legendarno:declare

01-02-2009 10:38

Tex kaže:

ma nista smash samo uzivaj :thumbsup

01-02-2009 21:05

PinkDevilll kaže:

:dance3

predobro.. živka :drinks

03-02-2009 22:24

Dr.House kaže:

:dance3

05-02-2009 19:43

Puppet kaže:

Yeeaaa ovo cu naucit u 3 minute :happy

09-02-2009 20:05

mateo2007 kaže:

oooodddllliiiččnnnooooo:thumbsup

10-02-2009 16:38

guitar-man kaže:

super je...svaka cast...:drinks:drummer:thrasher:guitarist

10-02-2009 20:22

Tommyb kaže:

it is supeeeer:guitarist:guitarist:guitarist:guitarist:guitarist:guitarist:guitarist:thrasher:thrasher

17-02-2009 14:00

Iron_boy kaže:

zakon je,svaka čast!

17-02-2009 14:37

xMortalx kaže:

To te ja pitam...:rozi

23-02-2009 20:15

Čupe kaže:

nekontam...ljudi pomazite!
proval sam ucit tabove prek ovog skola za pocetnike al nekontam..

01-03-2009 23:19

Čupe kaže:

moze li mi neko objasnit ovo...neznam koje ide prvooo....jer imaju ode 3 stupca, reda???

02-03-2009 22:10

FicoooMetallac kaže:

odlika =)))

03-03-2009 20:25

juraj97 kaže:

pjesma je cool

04-03-2009 15:06

juraj97 kaže:

super

04-03-2009 15:07

juraj97 kaže:

ODLICNO

04-03-2009 15:16

juraj97 kaže:

04-03-2009 15:19

juraj97 kaže:

SVAKA CAST

04-03-2009 15:24

guitar maniac 666 kaže:

predobro:dance3

04-03-2009 18:50

Čupe kaže:

molim vas da mi neko pomogne!!! :cray:

04-03-2009 20:34

Čupe kaže:

Ajme meni napokon sam naucil svirat al samo neznam usavrsit oni drugi:

E||--15--------15----13-----------|
B||---------12----12----12-17r15--|
G||-------------------------------|
D||-------------------------------|
A||-------------------------------|
E||-------------------------------|

05-03-2009 19:49

Dariuss kaže:

znam da se ovo svira na električnoj ali pošto ja nemam električnu ja ovo sviram na klasičnoj i isto zvuči dobro

07-03-2009 22:40

guitar maniac 666 kaže:

nije hammer na 14 polje,nego slide do 14 polja

10-04-2009 22:20

guitar_hero kaže:

dobro je ali nije orginal ko sto svira daleka obala

18-04-2009 15:02

Žare kaže:

hvala, nisam mogao skontati jedan dio sola... par tonova pa mi super došlo :)

04-05-2009 19:28

mario_ibanez kaže:

...extra...

14-05-2009 17:55

guitar_hero kaže:

E||--15--------15----13-----12--10|
B||---------12----12----12--------|
G||-------------------------------|
D||-------------------------------|
A||-------------------------------|
E||-------------------------------|

ljudi ovako vam ide ovaj dio original po dalekoj obali

16-05-2009 12:32

branko.vukic kaže:

Može li mi netko reći kako se svira 12-13h12 i 12b14h12?

20-06-2009 19:47

Goran_F2 kaže:

mislim da bi to trebalo biti 12-13p12 i 12h14p12

29-08-2009 20:32

Elvis Presley kaže:

predobro!

05-10-2009 16:53

GGJosipG kaže:

sta znaći b h i ~?

06-05-2010 15:27

JoZZa kaže:

SUPER!!!!!

04-02-2011 12:35

G_dur kaže:

Super je

18-02-2011 16:01

Markan1989 kaže:

ja bi na kraj stavio 12b14r šta će ti hammer na polje na koje si digao ton sa bendom od prethodnog polja sviraš dupli ton XD i to na početku i na kraju uvoda



šta se tiče ovog

E||--15--------15----13-----------|
B||---------12----12----12-17r15--|

ja bi tu stavio

E||--15--------15----13----12-----|
B||---------12----12----12----15--|

al eto to bi ja napravio šta će ti release kad moraš prvo bendat i tko stigne ovo bez bendanja odsvirat nek mu bude XD samo držiš ruku na jednoj poziciji i odsviraš lakše :)

13-07-2011 19:57