Miroslav Ilić

tebi(tema)

by: faLLen_angel

Pronađi akord!

Ne znaš kako odsvirati neki od akorda pjesmi tebi(tema)? Upiši akord u tražilicu i saznaj!

Traženi akord će se prikazati ovdje

Od istog izvođača

Pregledano 6339 puta
Pregledano 5984 puta
Pregledano 11199 puta
Pregledano 4549 puta
Pregledano 22799 puta
Trebaš ritam za ovu pjesmu? Pronađi ga ovdje
Akordi/Tabovi:
miroslav ilic
            tebi


E||--6h7---5--------------8----7--|
B||------------8--7---5-----------|
G||-------------------------------|
D||-------------------------------|
A||-------------------------------|
E||-------------------------------|

                                                     
E||----------------------------------------|
B||--5h7h8h9h10--8--10--10---8---10-8---7--|
G||----------------------------------------|
D||----------------------------------------|
A||----------------------------------------|
E||----------------------------------------|

                                                                               
E||--6h7----7---7-8h5--7--5-----7-----5----|
B||-------------------------5-8------------|
G||----------------------------------------|
D||----------------------------------------|
A||----------------------------------------|
E||----------------------------------------|

                                                             
E||--5---------------8--7--5--7-----5-----||\
B||-----8----7----8--------------7-----8--|| \
G||---------------------------------------||  \ 2x
D||---------------------------------------||  /
A||---------------------------------------|| /
E||---------------------------------------||/
Komentari
Još nema komentara