Miroslav Ilić

jesen sedamdeset i neke

by: faLLen_angel

Pronađi akord!

Ne znaš kako odsvirati neki od akorda pjesmi jesen sedamdeset i neke? Upiši akord u tražilicu i saznaj!

Traženi akord će se prikazati ovdje

Od istog izvođača

Pregledano 887 puta
Pregledano 7484 puta
Pregledano 24521 puta
Pregledano 29211 puta
Pregledano 14379 puta
Trebaš ritam za ovu pjesmu? Pronađi ga ovdje
Akordi/Tabovi:
miroslav ilic
        jesen sedamdeset i neke


E||----------------6h7-8---7----5h7-5---------|
B||-------------------------------------6--5--|
G||--7h8-9---9---9----------------------------|
D||-------------------------------------------|
A||-------------------------------------------|
E||-------------------------------------------|


                                                                         
E||---------5------4---------------------------|
B||--6--6-------6----5---6--5------------------|
G||----------------------------7-5-7-5-4-5--7--|
D||--------------------------------------------|
A||--------------------------------------------|
E||--------------------------------------------|


                                                         
E||--------------------------------12---10-----|
B||--5----6--5-----------------------------12--|
G||---------------7-8-9----9--9----------------|
D||--------------------------------------------|
A||--------------------------------------------|
E||--------------------------------------------|


                                                                 
E||---8---7-8--10-----12--||
B||-------------------13--||
G||-----------------------||
D||-----------------------||
A||-----------------------||
E||-----------------------||


Bm              F#7
Ne volim jesen, ne volim
                Bm
kad pada lisce zlatno
Em       F#    F#7
ne volim kise, ne volis
      Bm     
ni ti verovatno

ref:   

D
Jesen je plakala s tobom
                         Em
Jesen sedam sedamdeset i neke
A        A7        Bm
kada smo poslednji put
A           Bm
setali kraj reke
Komentari
Još nema komentara