Gibonni

oprosti(uvod)

by: faLLen_angel

Pronađi akord!

Ne znaš kako odsvirati neki od akorda pjesmi oprosti(uvod)? Upiši akord u tražilicu i saznaj!

Traženi akord će se prikazati ovdje

Od istog izvođača

Pregledano 53122 puta
Pregledano 33666 puta
Pregledano 6519 puta
Pregledano 21244 puta
Pregledano 2610 puta
Trebaš ritam za ovu pjesmu? Pronađi ga ovdje
Akordi/Tabovi:
gibonni
                  oprosti


E||----------------5-7---5-4-5----5-4-5----------|
B||-----8--7---7-8-----------------------7---10--|
G||----------------------------------------------|
D||--7-------------------------------------------|
A||----------------------------------------------|
E||----------------------------------------------|

                                                                       
E||--10-----------------------------------------||
B||------10-8-7--------------5---------------8--||
G||-------------9-7----6--7-----6-7-------------||
D||-------------------------------------7-------||
A||---------------------------------------------||
E||---------------------------------------------||
Komentari
Još nema komentara