Riblja Čorba

Ja Sam Jos Ona Ista Budala(tema)

by: faLLen_angel

Pronađi akord!

Ne znaš kako odsvirati neki od akorda pjesmi Ja Sam Jos Ona Ista Budala(tema)? Upiši akord u tražilicu i saznaj!

Traženi akord će se prikazati ovdje

Od istog izvođača

Pregledano 9757 puta
Pregledano 1534 puta
Pregledano 3844 puta
Pregledano 3367 puta
Pregledano 4398 puta
Trebaš ritam za ovu pjesmu? Pronađi ga ovdje
Akordi/Tabovi:
ja sam jos ona ista budala

E||----------------------------------|
B||----------------------------------|
G||----------10h9--------------------|
D||--10h12----------12--10--12~------|
A||----------------------------------|
E||----------------------------------|
                                                                             
E||----------------------------------|
B||---------------13-----------------|
G||-12b14---12h14-----14--12--12-10~-|
D||----------------------------------|
A||----------------------------------|
E||----------------------------------|

E||----------------------------------|
B||----------------------------------|
G||----------10h9--------------------|
D||--10h12----------12--10--12~------|
A||----------------------------------|
E||----------------------------------|
                                                               
E||---------------------------------||
B||---------13----------------------||
G||--12h14------14---12-10-12-------||
D||----------------------------10~--||
A||---------------------------------||
E||---------------------------------||
Komentari
Još nema komentara