Đorđe Balašević

don francisko long play(uvod)

by: faLLen_angel

Pronađi akord!

Ne znaš kako odsvirati neki od akorda pjesmi don francisko long play(uvod)? Upiši akord u tražilicu i saznaj!

Traženi akord će se prikazati ovdje

Od istog izvođača

Pregledano 309 puta
Pregledano 111601 puta
Pregledano 19995 puta
Pregledano 2151 puta
Pregledano 19272 puta
Trebaš ritam za ovu pjesmu? Pronađi ga ovdje
Akordi/Tabovi:
Don Francisko long play                             


                                                                       
E||--5---4---3---2---|----5--7----5---|----7--7/-9--5------|
B||------------------|----------------|--------------------|
G||--6---4---2---2---|----6--7----6---|----7--7/-9--6------|
D||------------------|----------------|--------------------|
A||------------------|----------------|--------------------|
E||------------------|----------------|--------------------|


                                                                       
E||-------------------9--9--8--9--/12---10--|--10----------|
B||-----------10--12------------------------|--------7--9--|
G||-6-6---9-----------9--9--9--9--/13---11--|--11----------|
D||-----------11--12------------------------|--------7--9--|
A||-7-7---11--------------------------------|--------------|
E||-----------------------------------------|--------------|


                       
E||----------------------------||
B||--10--9---7--9----10--------||
G||----------------------------||
D||--11--9---7--9----11--------||
A||----------------------------||
E||----------------------------||
Komentari
Još nema komentara