Riblja Čorba

evo ti za taksi

by: faLLen_angel

Pronađi akord!

Ne znaš kako odsvirati neki od akorda pjesmi evo ti za taksi? Upiši akord u tražilicu i saznaj!

Traženi akord će se prikazati ovdje

Od istog izvođača

Pregledano 17262 puta
Pregledano 1847 puta
Pregledano 2211 puta
Pregledano 4537 puta
Pregledano 2174 puta
Trebaš ritam za ovu pjesmu? Pronađi ga ovdje
Akordi/Tabovi:
evo ti za taxi
     
E||----------------------|-----------------|
B||--------7---8-7-8-----|--------7--------|
G||-----7-------------7--|-----7-----------| 2x
D||--9-------------------|--9--------------|
A||----------------------|-----------9--9--|
E||----------------------|-----------------|

Bm        G   Bm  F#    Bm
Priguseno svetlo, prava atmosfera
sa suprotnog zida smeje mi se senka.
Pusim u maniru iskusnog svalera
a kraj mene prede zadovoljna zenka.

A
Cekam da se dignes i pokupis stvari
D||----------2----------2--
A||--0--3h4-----0--3h4----- 2x
E||------------------------
Bm
u meni jos samo praznina postoji
A
Umoran sam duso evo ti za taksi
D||----------2----------2--
A||--0--3h4-----0--3h4----- 2x
E||------------------------
Bm
Hajde podji kuci brinuce se tvoji.
Komentari

tommy15 kaže:

Uvod na basu je neispravno napisan.
Ovo je ispravno...odprilike
E//------------------------------------------------------------------
B//------------------------------------------------------------------
G//------------------------------------------------------------------
D//------------------------------------------------------------------
A//-0---0--0-0-0---0--0-0-0---0---0---0--0-0-0---0-------------------
E//---0----------0----------0-------0----------0---------------------

17-04-2009 15:31