Bajaga

Zvezda (solo)

by: faLLen_angel

Pronađi akord!

Ne znaš kako odsvirati neki od akorda pjesmi Zvezda (solo)? Upiši akord u tražilicu i saznaj!

Traženi akord će se prikazati ovdje

Od istog izvođača

Pregledano 31051 puta
Pregledano 4129 puta
Pregledano 7466 puta
Pregledano 23581 puta
Pregledano 17046 puta
Trebaš ritam za ovu pjesmu? Pronađi ga ovdje
Akordi/Tabovi:
Zvezda                                     

                                                       
E||----------------------------|------------------------|
B||----------------------------|--------12--14----------|
G||--13--14----14----13--14----|----------------14------|
D||----------------------------|------------------------|
A||----------------------------|------------------------|
E||----------------------------|------------------------|


                                                     
E||----------------------------|------------------------|
B||----------------------------|------------------------|
G||--14--13----13--------13----|------14----14--13------|
D||------------------11--------|------------------------|
A||----------------------------|------------------------|
E||----------------------------|------------------------|


                                                       
E||----------------------------|------------------------|
B||----------------------------|----------12h14-12------|
G||--13--14----14----13--14----|--------------------13--|
D||----------------------------|------------------------|
A||----------------------------|------------------------|
E||----------------------------|------------------------|


                                                   
E||---------------------------|----------12------------||
B||---------------------------|------12----------------||
G||--14--13----13----x--13----|------------------------||
D||---------------------------|------------------------||
A||---------------------------|------------------------||
E||---------------------------|------------------------||
Komentari

Nikkola_rmt kaže:

Ne pase.. :D
Ne valja uopste

03-06-2012 13:28