Srebrna Krila

Moja Je Soba Samica(uvod)

by: faLLen_angel

Pronađi akord!

Ne znaš kako odsvirati neki od akorda pjesmi Moja Je Soba Samica(uvod)? Upiši akord u tražilicu i saznaj!

Traženi akord će se prikazati ovdje

Od istog izvođača

Pregledano 2870 puta
Pregledano 14566 puta
Pregledano 2532 puta
Pregledano 2385 puta
Pregledano 5534 puta
Trebaš ritam za ovu pjesmu? Pronađi ga ovdje
Akordi/Tabovi:
moja je soba samica                                         


                                                                   
E||-------------8-----------|------------------|
B||-----10---8-----11--10-8-|--10--------------|
G||-------------------------|------------------|
D||-------------------------|------------------|
A||-------------------------|------------------|
E||-------------------------|------------------|


                                                                       
E||-------------8-----------|------------------|
B||-----10---8-----11--10-8-|--10--------------|
G||-------------------------|------------------|
D||-------------------------|------------------|
A||-------------------------|------------------|
E||-------------------------|------------------|


                                                                       
E||------------------------|-------------------|
B||-----8---6--8--6---6-5--|-------------------|
G||------------------------|--5----------------|
D||------------------------|-------------------|
A||------------------------|-------------------|
E||------------------------|-------------------|


E||----------------------------|-------10------|
B||---6--8--8--6--6--5--6--5-6-|---------------|
G||----------------------------|--7------------|
D||----------------------------|---------------|
A||----------------------------|---------------|
E||----------------------------|---------------|
Komentari
Još nema komentara