Srebrna Krila

Lljubav Je Za Ljude Sve(tema)

by: faLLen_angel

Pronađi akord!

Ne znaš kako odsvirati neki od akorda pjesmi Lljubav Je Za Ljude Sve(tema)? Upiši akord u tražilicu i saznaj!

Traženi akord će se prikazati ovdje

Od istog izvođača

Pregledano 2533 puta
Pregledano 16110 puta
Pregledano 4100 puta
Pregledano 14566 puta
Pregledano 290 puta
Trebaš ritam za ovu pjesmu? Pronađi ga ovdje
Akordi/Tabovi:
Ljubav je za ljude sve

                                                             
E||----------13--------------|--13------15--12---------------|
B||--13--15--------------15--|------15---------15--13--------|
G||--------------------------|---------------------------14--|
D||--------------------------|-------------------------------|
A||--------------------------|-------------------------------|
E||--------------------------|-------------------------------|


                                                                   
E||---------------------------------|-------------------------10-|
B||----------13--13---------13--13--|-----------------13--13-----|
G||--15--14----------15-14----------|--15-14--15--15-------------|
D||---------------------------------|----------------------------|
A||---------------------------------|----------------------------|
E||---------------------------------|----------------------------|


                                                           
E||---13------------10--13-|---10--15--12--10----------------|
B||------------------------|-------------------13------------|
G||------------------------|-------------------------14--15--|
D||------------------------|---------------------------------|
A||------------------------|---------------------------------|
E||------------------------|---------------------------------|


                                                                               
E||---------------------------------|------------------------|
B||------13--13---------13--13------|---------15---13--------|
G||--14----------15--14---------15--|--14-15-----------------|
D||---------------------------------|------------------------|
A||---------------------------------|------------------------|
E||---------------------------------|------------------------|
Komentari
Još nema komentara